ISO-10303-21;
HEADER;
/* Generated by software containing ST-Developer
 * from STEP Tools, Inc. (www.steptools.com) 
 */
/* OPTION: using custom schema-name function */

FILE_DESCRIPTION(
/* description */ (''),
/* implementation_level */ '2;1');

FILE_NAME(
/* name */ 'cube.stp',
/* time_stamp */ '2012-06-29T14:25:09+08:00',
/* author */ (''),
/* organization */ (''),
/* preprocessor_version */ 'ST-DEVELOPER v14',
/* originating_system */ 'SIEMENS PLM Software NX 8.0',
/* authorisation */ '');

FILE_SCHEMA (('AUTOMOTIVE_DESIGN { 1 0 10303 214 3 1 1 1 }'));
ENDSEC;

DATA;
#10=SHAPE_REPRESENTATION_RELATIONSHIP('None',
'relationship between cube-None and cube-None',#22,#11);
#11=ADVANCED_BREP_SHAPE_REPRESENTATION('cube-None',(#32),#187);
#12=SHAPE_DEFINITION_REPRESENTATION(#13,#22);
#13=PRODUCT_DEFINITION_SHAPE('','',#14);
#14=PRODUCT_DEFINITION(' ','',#16,#15);
#15=PRODUCT_DEFINITION_CONTEXT('part definition',#21,'design');
#16=PRODUCT_DEFINITION_FORMATION_WITH_SPECIFIED_SOURCE(' ',' ',#18,
 .NOT_KNOWN.);
#17=PRODUCT_RELATED_PRODUCT_CATEGORY('part','',(#18));
#18=PRODUCT('cube','cube',' ',(#19));
#19=PRODUCT_CONTEXT(' ',#21,'mechanical');
#20=APPLICATION_PROTOCOL_DEFINITION('international standard',
'automotive_design',2010,#21);
#21=APPLICATION_CONTEXT(
'core data for automotive mechanical design processes');
#22=SHAPE_REPRESENTATION('cube-None',(#126),#187);
#23=PRESENTATION_LAYER_ASSIGNMENT('1','Layer 1',(#32));
#24=STYLED_ITEM('',(#25),#32);
#25=PRESENTATION_STYLE_ASSIGNMENT((#26));
#26=SURFACE_STYLE_USAGE(.BOTH.,#27);
#27=SURFACE_SIDE_STYLE('',(#28));
#28=SURFACE_STYLE_FILL_AREA(#29);
#29=FILL_AREA_STYLE('',(#30));
#30=FILL_AREA_STYLE_COLOUR('',#31);
#31=COLOUR_RGB('Orange',1.,0.6,0.);
#32=MANIFOLD_SOLID_BREP('',#33);
#33=CLOSED_SHELL('',(#34,#35,#36,#37,#38,#39));
#34=ADVANCED_FACE('',(#46),#40,.F.);
#35=ADVANCED_FACE('',(#47),#41,.F.);
#36=ADVANCED_FACE('',(#48),#42,.F.);
#37=ADVANCED_FACE('',(#49),#43,.F.);
#38=ADVANCED_FACE('',(#50),#44,.T.);
#39=ADVANCED_FACE('',(#51),#45,.F.);
#40=PLANE('',#127);
#41=PLANE('',#128);
#42=PLANE('',#129);
#43=PLANE('',#130);
#44=PLANE('',#131);
#45=PLANE('',#132);
#46=FACE_OUTER_BOUND('',#52,.T.);
#47=FACE_OUTER_BOUND('',#53,.T.);
#48=FACE_OUTER_BOUND('',#54,.T.);
#49=FACE_OUTER_BOUND('',#55,.T.);
#50=FACE_OUTER_BOUND('',#56,.T.);
#51=FACE_OUTER_BOUND('',#57,.T.);
#52=EDGE_LOOP('',(#58,#59,#60,#61));
#53=EDGE_LOOP('',(#62,#63,#64,#65));
#54=EDGE_LOOP('',(#66,#67,#68,#69));
#55=EDGE_LOOP('',(#70,#71,#72,#73));
#56=EDGE_LOOP('',(#74,#75,#76,#77));
#57=EDGE_LOOP('',(#78,#79,#80,#81));
#58=ORIENTED_EDGE('',*,*,#90,.T.);
#59=ORIENTED_EDGE('',*,*,#91,.F.);
#60=ORIENTED_EDGE('',*,*,#92,.F.);
#61=ORIENTED_EDGE('',*,*,#93,.T.);
#62=ORIENTED_EDGE('',*,*,#94,.T.);
#63=ORIENTED_EDGE('',*,*,#95,.F.);
#64=ORIENTED_EDGE('',*,*,#96,.F.);
#65=ORIENTED_EDGE('',*,*,#91,.T.);
#66=ORIENTED_EDGE('',*,*,#97,.T.);
#67=ORIENTED_EDGE('',*,*,#98,.F.);
#68=ORIENTED_EDGE('',*,*,#99,.F.);
#69=ORIENTED_EDGE('',*,*,#95,.T.);
#70=ORIENTED_EDGE('',*,*,#100,.T.);
#71=ORIENTED_EDGE('',*,*,#93,.F.);
#72=ORIENTED_EDGE('',*,*,#101,.F.);
#73=ORIENTED_EDGE('',*,*,#98,.T.);
#74=ORIENTED_EDGE('',*,*,#92,.T.);
#75=ORIENTED_EDGE('',*,*,#96,.T.);
#76=ORIENTED_EDGE('',*,*,#99,.T.);
#77=ORIENTED_EDGE('',*,*,#101,.T.);
#78=ORIENTED_EDGE('',*,*,#90,.F.);
#79=ORIENTED_EDGE('',*,*,#100,.F.);
#80=ORIENTED_EDGE('',*,*,#97,.F.);
#81=ORIENTED_EDGE('',*,*,#94,.F.);
#82=VERTEX_POINT('',#161);
#83=VERTEX_POINT('',#162);
#84=VERTEX_POINT('',#164);
#85=VERTEX_POINT('',#166);
#86=VERTEX_POINT('',#170);
#87=VERTEX_POINT('',#172);
#88=VERTEX_POINT('',#176);
#89=VERTEX_POINT('',#178);
#90=EDGE_CURVE('',#82,#83,#102,.T.);
#91=EDGE_CURVE('',#84,#83,#103,.T.);
#92=EDGE_CURVE('',#85,#84,#104,.T.);
#93=EDGE_CURVE('',#85,#82,#105,.T.);
#94=EDGE_CURVE('',#83,#86,#106,.T.);
#95=EDGE_CURVE('',#87,#86,#107,.T.);
#96=EDGE_CURVE('',#84,#87,#108,.T.);
#97=EDGE_CURVE('',#86,#88,#109,.T.);
#98=EDGE_CURVE('',#89,#88,#110,.T.);
#99=EDGE_CURVE('',#87,#89,#111,.T.);
#100=EDGE_CURVE('',#88,#82,#112,.T.);
#101=EDGE_CURVE('',#89,#85,#113,.T.);
#102=LINE('',#160,#114);
#103=LINE('',#163,#115);
#104=LINE('',#165,#116);
#105=LINE('',#167,#117);
#106=LINE('',#169,#118);
#107=LINE('',#171,#119);
#108=LINE('',#173,#120);
#109=LINE('',#175,#121);
#110=LINE('',#177,#122);
#111=LINE('',#179,#123);
#112=LINE('',#181,#124);
#113=LINE('',#182,#125);
#114=VECTOR('',#135,1.);
#115=VECTOR('',#136,1.);
#116=VECTOR('',#137,1.);
#117=VECTOR('',#138,1.);
#118=VECTOR('',#141,1.);
#119=VECTOR('',#142,1.);
#120=VECTOR('',#143,1.);
#121=VECTOR('',#146,1.);
#122=VECTOR('',#147,1.);
#123=VECTOR('',#148,1.);
#124=VECTOR('',#151,1.);
#125=VECTOR('',#152,1.);
#126=AXIS2_PLACEMENT_3D('',#159,#133,#134);
#127=AXIS2_PLACEMENT_3D('',#168,#139,#140);
#128=AXIS2_PLACEMENT_3D('',#174,#144,#145);
#129=AXIS2_PLACEMENT_3D('',#180,#149,#150);
#130=AXIS2_PLACEMENT_3D('',#183,#153,#154);
#131=AXIS2_PLACEMENT_3D('',#184,#155,#156);
#132=AXIS2_PLACEMENT_3D('',#185,#157,#158);
#133=DIRECTION('',(0.,0.,1.));
#134=DIRECTION('',(1.,0.,0.));
#135=DIRECTION('',(0.,1.,0.));
#136=DIRECTION('',(0.,0.,-1.));
#137=DIRECTION('',(0.,1.,0.));
#138=DIRECTION('',(0.,0.,-1.));
#139=DIRECTION('',(-1.,0.,0.));
#140=DIRECTION('',(0.,0.,1.));
#141=DIRECTION('',(-1.,0.,0.));
#142=DIRECTION('',(0.,0.,-1.));
#143=DIRECTION('',(-1.,0.,0.));
#144=DIRECTION('',(0.,-1.,0.));
#145=DIRECTION('',(0.,0.,-1.));
#146=DIRECTION('',(-3.70074341541719E-015,-1.,0.));
#147=DIRECTION('',(0.,0.,-1.));
#148=DIRECTION('',(-3.70074341541719E-015,-1.,0.));
#149=DIRECTION('',(1.,-3.70074341541719E-015,0.));
#150=DIRECTION('',(3.69149155687865E-015,1.,0.));
#151=DIRECTION('',(1.,-1.11022302462515E-015,0.));
#152=DIRECTION('',(1.,-1.11022302462515E-015,0.));
#153=DIRECTION('',(1.11022302462515E-015,1.,0.));
#154=DIRECTION('',(-1.,1.11022302462516E-015,0.));
#155=DIRECTION('',(0.,0.,1.));
#156=DIRECTION('',(1.,0.,0.));
#157=DIRECTION('',(0.,0.,1.));
#158=DIRECTION('',(1.,0.,0.));
#159=CARTESIAN_POINT('',(0.,0.,0.));
#160=CARTESIAN_POINT('',(140.,-140.,0.));
#161=CARTESIAN_POINT('',(140.,-140.,0.));
#162=CARTESIAN_POINT('',(140.,160.,0.));
#163=CARTESIAN_POINT('',(140.,160.,300.));
#164=CARTESIAN_POINT('',(140.,160.,300.));
#165=CARTESIAN_POINT('',(140.,-140.,300.));
#166=CARTESIAN_POINT('',(140.,-140.,300.));
#167=CARTESIAN_POINT('',(140.,-140.,300.));
#168=CARTESIAN_POINT('',(140.,-140.,300.));
#169=CARTESIAN_POINT('',(140.,160.,0.));
#170=CARTESIAN_POINT('',(-160.,160.,0.));
#171=CARTESIAN_POINT('',(-160.,160.,300.));
#172=CARTESIAN_POINT('',(-160.,160.,300.));
#173=CARTESIAN_POINT('',(140.,160.,300.));
#174=CARTESIAN_POINT('',(140.,160.,300.));
#175=CARTESIAN_POINT('',(-160.,160.,0.));
#176=CARTESIAN_POINT('',(-160.000000000001,-140.,0.));
#177=CARTESIAN_POINT('',(-160.000000000001,-140.,300.));
#178=CARTESIAN_POINT('',(-160.000000000001,-140.,300.));
#179=CARTESIAN_POINT('',(-160.,160.,300.));
#180=CARTESIAN_POINT('',(-160.,160.,300.));
#181=CARTESIAN_POINT('',(-160.000000000001,-140.,0.));
#182=CARTESIAN_POINT('',(-160.000000000001,-140.,300.));
#183=CARTESIAN_POINT('',(-160.000000000001,-140.,300.));
#184=CARTESIAN_POINT('',(0.,0.,300.));
#185=CARTESIAN_POINT('',(0.,0.,0.));
#186=MECHANICAL_DESIGN_GEOMETRIC_PRESENTATION_REPRESENTATION('',(#24),#187);
#187=(
GEOMETRIC_REPRESENTATION_CONTEXT(3)
GLOBAL_UNCERTAINTY_ASSIGNED_CONTEXT((#188))
GLOBAL_UNIT_ASSIGNED_CONTEXT((#194,#190,#189))
REPRESENTATION_CONTEXT('cube','TOP_LEVEL_ASSEMBLY_PART')
);
#188=UNCERTAINTY_MEASURE_WITH_UNIT(LENGTH_MEASURE(2.E-005),#194,
'DISTANCE_ACCURACY_VALUE','Maximum Tolerance applied to model');
#189=(
NAMED_UNIT(*)
SI_UNIT($,.STERADIAN.)
SOLID_ANGLE_UNIT()
);
#190=(
CONVERSION_BASED_UNIT('DEGREE',#192)
NAMED_UNIT(#191)
PLANE_ANGLE_UNIT()
);
#191=DIMENSIONAL_EXPONENTS(0.,0.,0.,0.,0.,0.,0.);
#192=PLANE_ANGLE_MEASURE_WITH_UNIT(PLANE_ANGLE_MEASURE(0.0174532925),#193);
#193=(
NAMED_UNIT(*)
PLANE_ANGLE_UNIT()
SI_UNIT($,.RADIAN.)
);
#194=(
LENGTH_UNIT()
NAMED_UNIT(*)
SI_UNIT(.MILLI.,.METRE.)
);
ENDSEC;
END-ISO-10303-21;
