ISO-10303-21;
HEADER;
FILE_DESCRIPTION((''),'2;1');
FILE_NAME('HEAD_FRONT','2008-09-05T',('mmeadows'),(''),
'PRO/ENGINEER BY PARAMETRIC TECHNOLOGY CORPORATION, 2008340',
'PRO/ENGINEER BY PARAMETRIC TECHNOLOGY CORPORATION, 2008340','');
FILE_SCHEMA(('AUTOMOTIVE_DESIGN { 1 0 10303 214 1 1 1 1 }'));
ENDSEC;
DATA;
#15=CARTESIAN_POINT('',(0.E0,0.E0,0.E0));
#16=DIRECTION('',(1.E0,0.E0,0.E0));
#17=DIRECTION('',(0.E0,1.E0,0.E0));
#18=AXIS2_PLACEMENT_3D('',#15,#16,#17);
#20=DRAUGHTING_PRE_DEFINED_CURVE_FONT('continuous');
#21=CURVE_STYLE('',#20,POSITIVE_LENGTH_MEASURE(2.E-2),#10);
#22=PRESENTATION_STYLE_ASSIGNMENT((#21));
#23=STYLED_ITEM('',(#22),#19);
#24=CARTESIAN_POINT('',(0.E0,0.E0,0.E0));
#25=DIRECTION('',(0.E0,0.E0,1.E0));
#26=DIRECTION('',(0.E0,1.E0,0.E0));
#27=AXIS2_PLACEMENT_3D('',#24,#25,#26);
#29=CURVE_STYLE('',#20,POSITIVE_LENGTH_MEASURE(2.E-2),#10);
#30=PRESENTATION_STYLE_ASSIGNMENT((#29));
#31=STYLED_ITEM('',(#30),#28);
#32=CARTESIAN_POINT('',(0.E0,0.E0,0.E0));
#33=DIRECTION('',(0.E0,0.E0,-1.E0));
#34=DIRECTION('',(0.E0,-1.E0,0.E0));
#35=AXIS2_PLACEMENT_3D('',#32,#33,#34);
#37=CURVE_STYLE('',#20,POSITIVE_LENGTH_MEASURE(2.E-2),#10);
#38=PRESENTATION_STYLE_ASSIGNMENT((#37));
#39=STYLED_ITEM('',(#38),#36);
#40=CARTESIAN_POINT('',(0.E0,0.E0,0.E0));
#41=DIRECTION('',(-1.E0,0.E0,0.E0));
#42=DIRECTION('',(0.E0,1.E0,0.E0));
#43=AXIS2_PLACEMENT_3D('',#40,#41,#42);
#45=CURVE_STYLE('',#20,POSITIVE_LENGTH_MEASURE(2.E-2),#10);
#46=PRESENTATION_STYLE_ASSIGNMENT((#45));
#47=STYLED_ITEM('',(#46),#44);
#48=CARTESIAN_POINT('',(0.E0,0.E0,0.E0));
#49=DIRECTION('',(1.E0,0.E0,0.E0));
#50=DIRECTION('',(0.E0,1.E0,0.E0));
#51=AXIS2_PLACEMENT_3D('',#48,#49,#50);
#53=CURVE_STYLE('',#20,POSITIVE_LENGTH_MEASURE(2.E-2),#10);
#54=PRESENTATION_STYLE_ASSIGNMENT((#53));
#55=STYLED_ITEM('',(#54),#52);
#56=CARTESIAN_POINT('',(0.E0,0.E0,0.E0));
#57=DIRECTION('',(-1.E0,0.E0,0.E0));
#58=DIRECTION('',(0.E0,1.E0,0.E0));
#59=AXIS2_PLACEMENT_3D('',#56,#57,#58);
#61=CURVE_STYLE('',#20,POSITIVE_LENGTH_MEASURE(2.E-2),#10);
#62=PRESENTATION_STYLE_ASSIGNMENT((#61));
#63=STYLED_ITEM('',(#62),#60);
#64=CARTESIAN_POINT('',(0.E0,0.E0,0.E0));
#65=DIRECTION('',(0.E0,0.E0,-1.E0));
#66=DIRECTION('',(-1.E0,0.E0,0.E0));
#67=AXIS2_PLACEMENT_3D('',#64,#65,#66);
#69=CURVE_STYLE('',#20,POSITIVE_LENGTH_MEASURE(2.E-2),#10);
#70=PRESENTATION_STYLE_ASSIGNMENT((#69));
#71=STYLED_ITEM('',(#70),#68);
#72=CARTESIAN_POINT('',(0.E0,0.E0,0.E0));
#73=DIRECTION('',(0.E0,0.E0,1.E0));
#74=DIRECTION('',(-1.E0,0.E0,0.E0));
#75=AXIS2_PLACEMENT_3D('',#72,#73,#74);
#77=CURVE_STYLE('',#20,POSITIVE_LENGTH_MEASURE(2.E-2),#10);
#78=PRESENTATION_STYLE_ASSIGNMENT((#77));
#79=STYLED_ITEM('',(#78),#76);
#80=CARTESIAN_POINT('',(0.E0,6.E0,0.E0));
#81=CARTESIAN_POINT('',(-6.E0,0.E0,0.E0));
#82=VERTEX_POINT('',#80);
#83=VERTEX_POINT('',#81);
#84=CARTESIAN_POINT('',(-5.9E0,0.E0,0.E0));
#85=CARTESIAN_POINT('',(0.E0,5.9E0,0.E0));
#86=VERTEX_POINT('',#84);
#87=VERTEX_POINT('',#85);
#88=CARTESIAN_POINT('',(0.E0,-6.E0,0.E0));
#89=VERTEX_POINT('',#88);
#90=CARTESIAN_POINT('',(0.E0,-5.9E0,0.E0));
#91=VERTEX_POINT('',#90);
#92=CARTESIAN_POINT('',(0.E0,0.E0,0.E0));
#93=DIRECTION('',(1.E0,0.E0,0.E0));
#94=DIRECTION('',(0.E0,-1.E0,0.E0));
#95=AXIS2_PLACEMENT_3D('',#92,#93,#94);
#96=SPHERICAL_SURFACE('',#95,6.E0);
#98=ORIENTED_EDGE('',*,*,#97,.F.);
#100=ORIENTED_EDGE('',*,*,#99,.T.);
#102=ORIENTED_EDGE('',*,*,#101,.T.);
#103=EDGE_LOOP('',(#98,#100,#102));
#104=FACE_OUTER_BOUND('',#103,.F.);
#106=FILL_AREA_STYLE_COLOUR('',#6);
#107=FILL_AREA_STYLE('',(#106));
#108=SURFACE_STYLE_FILL_AREA(#107);
#109=SURFACE_SIDE_STYLE('',(#108));
#110=SURFACE_STYLE_USAGE(.POSITIVE.,#109);
#111=FILL_AREA_STYLE_COLOUR('',#10);
#112=FILL_AREA_STYLE('',(#111));
#113=SURFACE_STYLE_FILL_AREA(#112);
#114=SURFACE_SIDE_STYLE('',(#113));
#115=SURFACE_STYLE_USAGE(.NEGATIVE.,#114);
#116=PRESENTATION_STYLE_ASSIGNMENT((#110,#115));
#117=OVER_RIDING_STYLED_ITEM('',(#116),#105,#14);
#118=CARTESIAN_POINT('',(0.E0,0.E0,0.E0));
#119=DIRECTION('',(1.E0,0.E0,0.E0));
#120=DIRECTION('',(0.E0,-1.E0,0.E0));
#121=AXIS2_PLACEMENT_3D('',#118,#119,#120);
#122=SPHERICAL_SURFACE('',#121,6.E0);
#123=ORIENTED_EDGE('',*,*,#97,.T.);
#124=ORIENTED_EDGE('',*,*,#101,.F.);
#126=ORIENTED_EDGE('',*,*,#125,.F.);
#127=EDGE_LOOP('',(#123,#124,#126));
#128=FACE_OUTER_BOUND('',#127,.F.);
#130=FILL_AREA_STYLE_COLOUR('',#6);
#131=FILL_AREA_STYLE('',(#130));
#132=SURFACE_STYLE_FILL_AREA(#131);
#133=SURFACE_SIDE_STYLE('',(#132));
#134=SURFACE_STYLE_USAGE(.POSITIVE.,#133);
#135=FILL_AREA_STYLE_COLOUR('',#10);
#136=FILL_AREA_STYLE('',(#135));
#137=SURFACE_STYLE_FILL_AREA(#136);
#138=SURFACE_SIDE_STYLE('',(#137));
#139=SURFACE_STYLE_USAGE(.NEGATIVE.,#138);
#140=PRESENTATION_STYLE_ASSIGNMENT((#134,#139));
#141=OVER_RIDING_STYLED_ITEM('',(#140),#129,#14);
#142=CARTESIAN_POINT('',(0.E0,0.E0,0.E0));
#143=DIRECTION('',(1.E0,0.E0,0.E0));
#144=DIRECTION('',(0.E0,-1.E0,0.E0));
#145=AXIS2_PLACEMENT_3D('',#142,#143,#144);
#146=PLANE('',#145);
#147=ORIENTED_EDGE('',*,*,#125,.T.);
#148=ORIENTED_EDGE('',*,*,#99,.F.);
#149=EDGE_LOOP('',(#147,#148));
#150=FACE_OUTER_BOUND('',#149,.F.);
#152=ORIENTED_EDGE('',*,*,#151,.T.);
#154=ORIENTED_EDGE('',*,*,#153,.F.);
#155=EDGE_LOOP('',(#152,#154));
#156=FACE_BOUND('',#155,.F.);
#158=CARTESIAN_POINT('',(0.E0,0.E0,0.E0));
#159=DIRECTION('',(1.E0,0.E0,0.E0));
#160=DIRECTION('',(0.E0,-1.E0,0.E0));
#161=AXIS2_PLACEMENT_3D('',#158,#159,#160);
#162=SPHERICAL_SURFACE('',#161,5.9E0);
#164=ORIENTED_EDGE('',*,*,#163,.F.);
#166=ORIENTED_EDGE('',*,*,#165,.T.);
#167=ORIENTED_EDGE('',*,*,#151,.F.);
#168=EDGE_LOOP('',(#164,#166,#167));
#169=FACE_OUTER_BOUND('',#168,.F.);
#171=CARTESIAN_POINT('',(0.E0,0.E0,0.E0));
#172=DIRECTION('',(1.E0,0.E0,0.E0));
#173=DIRECTION('',(0.E0,-1.E0,0.E0));
#174=AXIS2_PLACEMENT_3D('',#171,#172,#173);
#175=SPHERICAL_SURFACE('',#174,5.9E0);
#176=ORIENTED_EDGE('',*,*,#163,.T.);
#177=ORIENTED_EDGE('',*,*,#153,.T.);
#178=ORIENTED_EDGE('',*,*,#165,.F.);
#179=EDGE_LOOP('',(#176,#177,#178));
#180=FACE_OUTER_BOUND('',#179,.F.);
#182=CLOSED_SHELL('',(#105,#129,#157,#170,#181));
#183=MANIFOLD_SOLID_BREP('',#182);
#184=FILL_AREA_STYLE_COLOUR('',#10);
#185=FILL_AREA_STYLE('',(#184));
#186=SURFACE_STYLE_FILL_AREA(#185);
#187=SURFACE_SIDE_STYLE('',(#186));
#188=SURFACE_STYLE_USAGE(.BOTH.,#187);
#189=PRESENTATION_STYLE_ASSIGNMENT((#188));
#14=STYLED_ITEM('',(#189),#183);
#190=CARTESIAN_POINT('',(0.E0,0.E0,0.E0));
#191=DIRECTION('',(0.E0,0.E0,1.E0));
#192=DIRECTION('',(1.E0,0.E0,0.E0));
#193=AXIS2_PLACEMENT_3D('PRT_CSYS_DEF',#190,#191,#192);
#194=CURVE_STYLE('',#20,POSITIVE_LENGTH_MEASURE(2.E-2),#6);
#195=PRESENTATION_STYLE_ASSIGNMENT((#194));
#196=STYLED_ITEM('',(#195),#193);
#197=DIRECTION('',(1.E0,0.E0,0.E0));
#198=VECTOR('',#197,6.E0);
#199=CARTESIAN_POINT('',(-6.E0,0.E0,0.E0));
#200=LINE('',#199,#198);
#202=CURVE_STYLE('',#20,POSITIVE_LENGTH_MEASURE(2.E-2),#11);
#203=PRESENTATION_STYLE_ASSIGNMENT((#202));
#204=STYLED_ITEM('',(#203),#201);
#206=PRESENTATION_LAYER_ASSIGNMENT('02___PRT_ALL_AXES','',(#201));
#207=PRESENTATION_LAYER_ASSIGNMENT('05___PRT_ALL_DTM_CSYS_9','',(#193));
#208=PRESENTATION_LAYER_ASSIGNMENT('05___PRT_DEF_DTM_CSYS_6','',(#193));
#209=(LENGTH_UNIT()NAMED_UNIT(*)SI_UNIT(.CENTI.,.METRE.));
#210=DIMENSIONAL_EXPONENTS(0.E0,0.E0,0.E0,0.E0,0.E0,0.E0,0.E0);
#211=(NAMED_UNIT(*)PLANE_ANGLE_UNIT()SI_UNIT($,.RADIAN.));
#212=PLANE_ANGLE_MEASURE_WITH_UNIT(PLANE_ANGLE_MEASURE(1.745329251994E-2),#211);
#213=(CONVERSION_BASED_UNIT('DEGREE',#212)NAMED_UNIT(#210)PLANE_ANGLE_UNIT());
#214=(NAMED_UNIT(*)SI_UNIT($,.STERADIAN.)SOLID_ANGLE_UNIT());
#215=UNCERTAINTY_MEASURE_WITH_UNIT(LENGTH_MEASURE(1.800276655198E-3),#209,
'distance_accuracy_value',
'Maximum model space distance between geometric entities at asserted connectivities');
#217=CARTESIAN_POINT('',(0.E0,0.E0,0.E0));
#218=DIRECTION('',(0.E0,0.E0,1.E0));
#219=DIRECTION('',(1.E0,0.E0,0.E0));
#205=GEOMETRIC_SET('',(#201));
#222=CARTESIAN_POINT('',(0.E0,0.E0,0.E0));
#223=DIRECTION('',(0.E0,0.E0,1.E0));
#224=DIRECTION('',(1.E0,0.E0,0.E0));
#227=CARTESIAN_POINT('',(0.E0,0.E0,0.E0));
#228=DIRECTION('',(0.E0,0.E0,1.E0));
#229=DIRECTION('',(1.E0,0.E0,0.E0));
#232=SHAPE_REPRESENTATION_RELATIONSHIP('','',#231,#221);
#233=SHAPE_REPRESENTATION_RELATIONSHIP('','',#231,#226);
#234=MECHANICAL_DESIGN_GEOMETRIC_PRESENTATION_REPRESENTATION('',(#23,#31,#39,
#47,#55,#63,#71,#79,#117,#141,#14,#196,#204),#216);
#235=APPLICATION_CONTEXT('automotive_design');
#236=APPLICATION_PROTOCOL_DEFINITION('international standard',
'automotive_design',2001,#235);
#237=PRODUCT_DEFINITION_CONTEXT('part definition',#235,'design');
#238=PRODUCT_CONTEXT('',#235,'mechanical');
#239=PRODUCT('HEAD_FRONT','HEAD_FRONT','NOT SPECIFIED',(#238));
#240=PRODUCT_DEFINITION_FORMATION('2','LAST_VERSION',#239);
#247=(LENGTH_UNIT()NAMED_UNIT(*)SI_UNIT(.CENTI.,.METRE.));
#248=DERIVED_UNIT_ELEMENT(#247,2.E0);
#249=DERIVED_UNIT((#248));
#250=MEASURE_REPRESENTATION_ITEM('surface area measure',AREA_MEASURE(
4.486508468589E2),#249);
#254=(LENGTH_UNIT()NAMED_UNIT(*)SI_UNIT(.CENTI.,.METRE.));
#255=DERIVED_UNIT_ELEMENT(#254,3.E0);
#256=DERIVED_UNIT((#255));
#257=MEASURE_REPRESENTATION_ITEM('volume measure',VOLUME_MEASURE(
2.224457038267E1),#256);
#261=CARTESIAN_POINT('centre point',(-2.975140052675E0,0.E0,0.E0));
#1=DRAUGHTING_PRE_DEFINED_COLOUR('green');
#2=COLOUR_RGB('',1.1E-2,1.2E-2,1.E0);
#3=COLOUR_RGB('',1.1E-1,1.1E-1,1.1E-1);
#4=COLOUR_RGB('',3.92E-1,1.2E-2,1.2E-2);
#5=COLOUR_RGB('',4.1E-1,0.E0,2.2E-1);
#6=COLOUR_RGB('',6.666666666667E-1,4.627450980392E-1,2.196078431373E-1);
#7=COLOUR_RGB('',8.784E-1,9.49E-1,1.E0);
#8=COLOUR_RGB('',9.6E-1,9.6E-1,9.6E-1);
#9=COLOUR_RGB('',9.8E-1,6.27E-1,0.E0);
#10=DRAUGHTING_PRE_DEFINED_COLOUR('red');
#11=DRAUGHTING_PRE_DEFINED_COLOUR('yellow');
#12=COLOUR_RGB('',1.E0,1.E0,9.49E-1);
#13=DRAUGHTING_PRE_DEFINED_COLOUR('white');
#19=CIRCLE('',#18,6.E0);
#28=CIRCLE('',#27,6.E0);
#36=CIRCLE('',#35,6.E0);
#44=CIRCLE('',#43,6.E0);
#52=CIRCLE('',#51,5.9E0);
#60=CIRCLE('',#59,5.9E0);
#68=CIRCLE('',#67,5.9E0);
#76=CIRCLE('',#75,5.9E0);
#97=EDGE_CURVE('',#82,#83,#28,.T.);
#99=EDGE_CURVE('',#82,#89,#19,.T.);
#101=EDGE_CURVE('',#89,#83,#36,.T.);
#105=ADVANCED_FACE('',(#104),#96,.T.);
#125=EDGE_CURVE('',#82,#89,#44,.T.);
#129=ADVANCED_FACE('',(#128),#122,.T.);
#151=EDGE_CURVE('',#87,#91,#52,.T.);
#153=EDGE_CURVE('',#87,#91,#60,.T.);
#157=ADVANCED_FACE('',(#150,#156),#146,.T.);
#163=EDGE_CURVE('',#86,#87,#68,.T.);
#165=EDGE_CURVE('',#86,#91,#76,.T.);
#170=ADVANCED_FACE('',(#169),#162,.F.);
#181=ADVANCED_FACE('',(#180),#175,.F.);
#201=TRIMMED_CURVE('A_1',#200,(PARAMETER_VALUE(0.E0)),(PARAMETER_VALUE(1.E0)),
.T.,.UNSPECIFIED.);
#216=(GEOMETRIC_REPRESENTATION_CONTEXT(3)GLOBAL_UNCERTAINTY_ASSIGNED_CONTEXT((
#215))GLOBAL_UNIT_ASSIGNED_CONTEXT((#209,#213,#214))REPRESENTATION_CONTEXT
('ID1','external'));
#220=AXIS2_PLACEMENT_3D('',#217,#218,#219);
#221=ADVANCED_BREP_SHAPE_REPRESENTATION('',(#220,#183),#216);
#225=AXIS2_PLACEMENT_3D('',#222,#223,#224);
#226=GEOMETRICALLY_BOUNDED_SURFACE_SHAPE_REPRESENTATION('',(#225,#205),#216);
#230=AXIS2_PLACEMENT_3D('',#227,#228,#229);
#231=SHAPE_REPRESENTATION('',(#230,#193),#216);
#241=PRODUCT_DEFINITION('part definition','',#240,#237);
#242=PRODUCT_DEFINITION_SHAPE('','SHAPE FOR HEAD_FRONT.',#241);
#243=SHAPE_REPRESENTATION('',(#183),#216);
#244=SHAPE_ASPECT('','solid data associated with HEAD_FRONT',#242,.F.);
#245=PROPERTY_DEFINITION('',
'shape for solid data with which properties are associated',#244);
#246=SHAPE_DEFINITION_REPRESENTATION(#245,#243);
#251=PROPERTY_DEFINITION('geometric_validation_property','area of HEAD_FRONT',
#244);
#252=REPRESENTATION('surface area',(#250),#216);
#253=PROPERTY_DEFINITION_REPRESENTATION(#251,#252);
#258=PROPERTY_DEFINITION('geometric_validation_property','volume of HEAD_FRONT',
#244);
#259=REPRESENTATION('volume',(#257),#216);
#260=PROPERTY_DEFINITION_REPRESENTATION(#258,#259);
#262=PROPERTY_DEFINITION('geometric_validation_property',
'centroid of HEAD_FRONT',#244);
#263=REPRESENTATION('centroid',(#261),#216);
#264=PROPERTY_DEFINITION_REPRESENTATION(#262,#263);
#265=SHAPE_DEFINITION_REPRESENTATION(#242,#231);
#266=PRODUCT_RELATED_PRODUCT_CATEGORY('part','',(#239));
ENDSEC;
END-ISO-10303-21;
