ISO-10303-21;
HEADER;
FILE_DESCRIPTION((''),'2;1');
FILE_NAME('HEAD_BACK','2008-09-05T',('mmeadows'),(''),
'PRO/ENGINEER BY PARAMETRIC TECHNOLOGY CORPORATION, 2008340',
'PRO/ENGINEER BY PARAMETRIC TECHNOLOGY CORPORATION, 2008340','');
FILE_SCHEMA(('AUTOMOTIVE_DESIGN { 1 0 10303 214 1 1 1 1 }'));
ENDSEC;
DATA;
#15=CARTESIAN_POINT('',(5.723635208502E0,0.E0,0.E0));
#16=DIRECTION('',(1.E0,0.E0,0.E0));
#17=DIRECTION('',(0.E0,1.E0,0.E0));
#18=AXIS2_PLACEMENT_3D('',#15,#16,#17);
#20=DRAUGHTING_PRE_DEFINED_CURVE_FONT('continuous');
#21=CURVE_STYLE('',#20,POSITIVE_LENGTH_MEASURE(2.E-2),#4);
#22=PRESENTATION_STYLE_ASSIGNMENT((#21));
#23=STYLED_ITEM('',(#22),#19);
#24=CARTESIAN_POINT('',(5.754128952326E0,0.E0,0.E0));
#25=DIRECTION('',(-1.E0,0.E0,0.E0));
#26=DIRECTION('',(0.E0,-1.E0,0.E0));
#27=AXIS2_PLACEMENT_3D('',#24,#25,#26);
#29=CURVE_STYLE('',#20,POSITIVE_LENGTH_MEASURE(2.E-2),#4);
#30=PRESENTATION_STYLE_ASSIGNMENT((#29));
#31=STYLED_ITEM('',(#30),#28);
#32=DIRECTION('',(-1.E0,0.E0,0.E0));
#33=VECTOR('',#32,5.E-1);
#34=CARTESIAN_POINT('',(6.223635208502E0,1.8E0,0.E0));
#35=LINE('',#34,#33);
#36=CURVE_STYLE('',#20,POSITIVE_LENGTH_MEASURE(2.E-2),#4);
#37=PRESENTATION_STYLE_ASSIGNMENT((#36));
#38=STYLED_ITEM('',(#37),#35);
#39=CARTESIAN_POINT('',(6.223635208502E0,1.148429249776E-14,0.E0));
#40=DIRECTION('',(1.E0,0.E0,0.E0));
#41=DIRECTION('',(0.E0,1.E0,0.E0));
#42=AXIS2_PLACEMENT_3D('',#39,#40,#41);
#44=CURVE_STYLE('',#20,POSITIVE_LENGTH_MEASURE(2.E-2),#4);
#45=PRESENTATION_STYLE_ASSIGNMENT((#44));
#46=STYLED_ITEM('',(#45),#43);
#47=DIRECTION('',(-1.E0,0.E0,0.E0));
#48=VECTOR('',#47,5.E-1);
#49=CARTESIAN_POINT('',(6.223635208502E0,-1.8E0,0.E0));
#50=LINE('',#49,#48);
#51=CURVE_STYLE('',#20,POSITIVE_LENGTH_MEASURE(2.E-2),#4);
#52=PRESENTATION_STYLE_ASSIGNMENT((#51));
#53=STYLED_ITEM('',(#52),#50);
#54=CARTESIAN_POINT('',(6.223635208502E0,1.148429249776E-14,0.E0));
#55=DIRECTION('',(-1.E0,0.E0,0.E0));
#56=DIRECTION('',(0.E0,1.E0,0.E0));
#57=AXIS2_PLACEMENT_3D('',#54,#55,#56);
#59=CURVE_STYLE('',#20,POSITIVE_LENGTH_MEASURE(2.E-2),#4);
#60=PRESENTATION_STYLE_ASSIGNMENT((#59));
#61=STYLED_ITEM('',(#60),#58);
#62=CARTESIAN_POINT('',(5.754128952326E0,0.E0,0.E0));
#63=DIRECTION('',(-1.E0,0.E0,0.E0));
#64=DIRECTION('',(0.E0,1.E0,0.E0));
#65=AXIS2_PLACEMENT_3D('',#62,#63,#64);
#67=CURVE_STYLE('',#20,POSITIVE_LENGTH_MEASURE(2.E-2),#4);
#68=PRESENTATION_STYLE_ASSIGNMENT((#67));
#69=STYLED_ITEM('',(#68),#66);
#70=CARTESIAN_POINT('',(0.E0,0.E0,0.E0));
#71=DIRECTION('',(0.E0,0.E0,-1.E0));
#72=DIRECTION('',(1.E0,0.E0,0.E0));
#73=AXIS2_PLACEMENT_3D('',#70,#71,#72);
#75=CURVE_STYLE('',#20,POSITIVE_LENGTH_MEASURE(2.E-2),#4);
#76=PRESENTATION_STYLE_ASSIGNMENT((#75));
#77=STYLED_ITEM('',(#76),#74);
#78=CARTESIAN_POINT('',(0.E0,0.E0,0.E0));
#79=DIRECTION('',(0.E0,0.E0,1.E0));
#80=DIRECTION('',(1.E0,0.E0,0.E0));
#81=AXIS2_PLACEMENT_3D('',#78,#79,#80);
#83=CURVE_STYLE('',#20,POSITIVE_LENGTH_MEASURE(2.E-2),#4);
#84=PRESENTATION_STYLE_ASSIGNMENT((#83));
#85=STYLED_ITEM('',(#84),#82);
#86=CARTESIAN_POINT('',(5.723635208502E0,0.E0,0.E0));
#87=DIRECTION('',(-1.E0,0.E0,0.E0));
#88=DIRECTION('',(0.E0,1.E0,0.E0));
#89=AXIS2_PLACEMENT_3D('',#86,#87,#88);
#91=CURVE_STYLE('',#20,POSITIVE_LENGTH_MEASURE(2.E-2),#4);
#92=PRESENTATION_STYLE_ASSIGNMENT((#91));
#93=STYLED_ITEM('',(#92),#90);
#94=CARTESIAN_POINT('',(0.E0,0.E0,0.E0));
#95=DIRECTION('',(0.E0,0.E0,1.E0));
#96=DIRECTION('',(9.539392014169E-1,3.E-1,0.E0));
#97=AXIS2_PLACEMENT_3D('',#94,#95,#96);
#99=CURVE_STYLE('',#20,POSITIVE_LENGTH_MEASURE(2.E-2),#4);
#100=PRESENTATION_STYLE_ASSIGNMENT((#99));
#101=STYLED_ITEM('',(#100),#98);
#102=CARTESIAN_POINT('',(0.E0,0.E0,0.E0));
#103=DIRECTION('',(0.E0,0.E0,-1.E0));
#104=DIRECTION('',(9.539392014169E-1,-3.E-1,0.E0));
#105=AXIS2_PLACEMENT_3D('',#102,#103,#104);
#107=CURVE_STYLE('',#20,POSITIVE_LENGTH_MEASURE(2.E-2),#4);
#108=PRESENTATION_STYLE_ASSIGNMENT((#107));
#109=STYLED_ITEM('',(#108),#106);
#110=DIRECTION('',(1.E0,0.E0,0.E0));
#111=VECTOR('',#110,4.695062561753E-1);
#112=CARTESIAN_POINT('',(5.754128952326E0,-1.7E0,0.E0));
#113=LINE('',#112,#111);
#114=CURVE_STYLE('',#20,POSITIVE_LENGTH_MEASURE(2.E-2),#4);
#115=PRESENTATION_STYLE_ASSIGNMENT((#114));
#116=STYLED_ITEM('',(#115),#113);
#117=DIRECTION('',(1.E0,0.E0,0.E0));
#118=VECTOR('',#117,4.695062561754E-1);
#119=CARTESIAN_POINT('',(5.754128952326E0,1.7E0,0.E0));
#120=LINE('',#119,#118);
#121=CURVE_STYLE('',#20,POSITIVE_LENGTH_MEASURE(2.E-2),#4);
#122=PRESENTATION_STYLE_ASSIGNMENT((#121));
#123=STYLED_ITEM('',(#122),#120);
#124=CARTESIAN_POINT('',(6.223635208502E0,1.148429249776E-14,0.E0));
#125=DIRECTION('',(-1.E0,0.E0,0.E0));
#126=DIRECTION('',(0.E0,1.E0,0.E0));
#127=AXIS2_PLACEMENT_3D('',#124,#125,#126);
#129=CURVE_STYLE('',#20,POSITIVE_LENGTH_MEASURE(2.E-2),#4);
#130=PRESENTATION_STYLE_ASSIGNMENT((#129));
#131=STYLED_ITEM('',(#130),#128);
#132=CARTESIAN_POINT('',(6.223635208502E0,1.148429249776E-14,0.E0));
#133=DIRECTION('',(1.E0,0.E0,0.E0));
#134=DIRECTION('',(0.E0,1.E0,0.E0));
#135=AXIS2_PLACEMENT_3D('',#132,#133,#134);
#137=CURVE_STYLE('',#20,POSITIVE_LENGTH_MEASURE(2.E-2),#4);
#138=PRESENTATION_STYLE_ASSIGNMENT((#137));
#139=STYLED_ITEM('',(#138),#136);
#140=CARTESIAN_POINT('',(0.E0,0.E0,0.E0));
#141=DIRECTION('',(-1.E0,0.E0,0.E0));
#142=DIRECTION('',(0.E0,1.E0,0.E0));
#143=AXIS2_PLACEMENT_3D('',#140,#141,#142);
#145=CURVE_STYLE('',#20,POSITIVE_LENGTH_MEASURE(2.E-2),#4);
#146=PRESENTATION_STYLE_ASSIGNMENT((#145));
#147=STYLED_ITEM('',(#146),#144);
#148=CARTESIAN_POINT('',(0.E0,0.E0,0.E0));
#149=DIRECTION('',(1.E0,0.E0,0.E0));
#150=DIRECTION('',(0.E0,1.E0,0.E0));
#151=AXIS2_PLACEMENT_3D('',#148,#149,#150);
#153=CURVE_STYLE('',#20,POSITIVE_LENGTH_MEASURE(2.E-2),#4);
#154=PRESENTATION_STYLE_ASSIGNMENT((#153));
#155=STYLED_ITEM('',(#154),#152);
#156=CARTESIAN_POINT('',(0.E0,0.E0,0.E0));
#157=DIRECTION('',(1.E0,0.E0,0.E0));
#158=DIRECTION('',(0.E0,1.E0,0.E0));
#159=AXIS2_PLACEMENT_3D('',#156,#157,#158);
#161=CURVE_STYLE('',#20,POSITIVE_LENGTH_MEASURE(2.E-2),#4);
#162=PRESENTATION_STYLE_ASSIGNMENT((#161));
#163=STYLED_ITEM('',(#162),#160);
#164=CARTESIAN_POINT('',(0.E0,0.E0,0.E0));
#165=DIRECTION('',(0.E0,0.E0,-1.E0));
#166=DIRECTION('',(0.E0,1.E0,0.E0));
#167=AXIS2_PLACEMENT_3D('',#164,#165,#166);
#169=CURVE_STYLE('',#20,POSITIVE_LENGTH_MEASURE(2.E-2),#4);
#170=PRESENTATION_STYLE_ASSIGNMENT((#169));
#171=STYLED_ITEM('',(#170),#168);
#172=CARTESIAN_POINT('',(0.E0,0.E0,0.E0));
#173=DIRECTION('',(0.E0,0.E0,1.E0));
#174=DIRECTION('',(0.E0,-1.E0,0.E0));
#175=AXIS2_PLACEMENT_3D('',#172,#173,#174);
#177=CURVE_STYLE('',#20,POSITIVE_LENGTH_MEASURE(2.E-2),#4);
#178=PRESENTATION_STYLE_ASSIGNMENT((#177));
#179=STYLED_ITEM('',(#178),#176);
#180=CARTESIAN_POINT('',(0.E0,0.E0,0.E0));
#181=DIRECTION('',(-1.E0,0.E0,0.E0));
#182=DIRECTION('',(0.E0,1.E0,0.E0));
#183=AXIS2_PLACEMENT_3D('',#180,#181,#182);
#185=CURVE_STYLE('',#20,POSITIVE_LENGTH_MEASURE(2.E-2),#4);
#186=PRESENTATION_STYLE_ASSIGNMENT((#185));
#187=STYLED_ITEM('',(#186),#184);
#188=CARTESIAN_POINT('',(0.E0,5.9E0,0.E0));
#189=CARTESIAN_POINT('',(5.9E0,0.E0,0.E0));
#190=VERTEX_POINT('',#188);
#191=VERTEX_POINT('',#189);
#192=CARTESIAN_POINT('',(0.E0,-5.9E0,0.E0));
#193=VERTEX_POINT('',#192);
#194=CARTESIAN_POINT('',(0.E0,6.E0,0.E0));
#195=CARTESIAN_POINT('',(0.E0,-6.E0,0.E0));
#196=VERTEX_POINT('',#194);
#197=VERTEX_POINT('',#195);
#198=CARTESIAN_POINT('',(6.223635208502E0,1.7E0,0.E0));
#199=CARTESIAN_POINT('',(6.223635208502E0,-1.7E0,0.E0));
#200=VERTEX_POINT('',#198);
#201=VERTEX_POINT('',#199);
#202=CARTESIAN_POINT('',(6.223635208502E0,1.8E0,0.E0));
#203=CARTESIAN_POINT('',(6.223635208502E0,-1.8E0,0.E0));
#204=VERTEX_POINT('',#202);
#205=VERTEX_POINT('',#203);
#206=CARTESIAN_POINT('',(5.723635208502E0,1.8E0,0.E0));
#207=CARTESIAN_POINT('',(5.723635208502E0,-1.8E0,0.E0));
#208=VERTEX_POINT('',#206);
#209=VERTEX_POINT('',#207);
#210=CARTESIAN_POINT('',(5.754128952326E0,-1.7E0,0.E0));
#211=CARTESIAN_POINT('',(5.754128952326E0,1.7E0,0.E0));
#212=VERTEX_POINT('',#210);
#213=VERTEX_POINT('',#211);
#214=CARTESIAN_POINT('',(6.E0,0.E0,0.E0));
#215=VERTEX_POINT('',#214);
#216=CARTESIAN_POINT('',(0.E0,0.E0,0.E0));
#217=DIRECTION('',(1.E0,0.E0,0.E0));
#218=DIRECTION('',(0.E0,-1.E0,0.E0));
#219=AXIS2_PLACEMENT_3D('',#216,#217,#218);
#220=SPHERICAL_SURFACE('',#219,6.E0);
#222=ORIENTED_EDGE('',*,*,#221,.T.);
#224=ORIENTED_EDGE('',*,*,#223,.T.);
#226=ORIENTED_EDGE('',*,*,#225,.F.);
#228=ORIENTED_EDGE('',*,*,#227,.F.);
#229=EDGE_LOOP('',(#222,#224,#226,#228));
#230=FACE_OUTER_BOUND('',#229,.F.);
#232=CARTESIAN_POINT('',(0.E0,0.E0,0.E0));
#233=DIRECTION('',(1.E0,0.E0,0.E0));
#234=DIRECTION('',(0.E0,-1.E0,0.E0));
#235=AXIS2_PLACEMENT_3D('',#232,#233,#234);
#236=SPHERICAL_SURFACE('',#235,6.E0);
#238=ORIENTED_EDGE('',*,*,#237,.T.);
#240=ORIENTED_EDGE('',*,*,#239,.F.);
#242=ORIENTED_EDGE('',*,*,#241,.T.);
#243=EDGE_LOOP('',(#238,#240,#242));
#244=FACE_OUTER_BOUND('',#243,.F.);
#246=CARTESIAN_POINT('',(6.248635208502E0,1.148123088076E-14,0.E0));
#247=DIRECTION('',(-1.E0,0.E0,0.E0));
#248=DIRECTION('',(0.E0,1.E0,0.E0));
#249=AXIS2_PLACEMENT_3D('',#246,#247,#248);
#250=CYLINDRICAL_SURFACE('',#249,1.8E0);
#251=ORIENTED_EDGE('',*,*,#221,.F.);
#253=ORIENTED_EDGE('',*,*,#252,.F.);
#255=ORIENTED_EDGE('',*,*,#254,.T.);
#257=ORIENTED_EDGE('',*,*,#256,.T.);
#258=EDGE_LOOP('',(#251,#253,#255,#257));
#259=FACE_OUTER_BOUND('',#258,.F.);
#261=CARTESIAN_POINT('',(6.248635208502E0,1.148123088076E-14,0.E0));
#262=DIRECTION('',(-1.E0,0.E0,0.E0));
#263=DIRECTION('',(0.E0,1.E0,0.E0));
#264=AXIS2_PLACEMENT_3D('',#261,#262,#263);
#265=CYLINDRICAL_SURFACE('',#264,1.8E0);
#267=ORIENTED_EDGE('',*,*,#266,.T.);
#268=ORIENTED_EDGE('',*,*,#256,.F.);
#270=ORIENTED_EDGE('',*,*,#269,.F.);
#271=ORIENTED_EDGE('',*,*,#252,.T.);
#272=EDGE_LOOP('',(#267,#268,#270,#271));
#273=FACE_OUTER_BOUND('',#272,.F.);
#275=CARTESIAN_POINT('',(0.E0,0.E0,0.E0));
#276=DIRECTION('',(1.E0,0.E0,0.E0));
#277=DIRECTION('',(0.E0,-1.E0,0.E0));
#278=AXIS2_PLACEMENT_3D('',#275,#276,#277);
#279=SPHERICAL_SURFACE('',#278,6.E0);
#281=ORIENTED_EDGE('',*,*,#280,.T.);
#282=ORIENTED_EDGE('',*,*,#241,.F.);
#283=ORIENTED_EDGE('',*,*,#239,.T.);
#284=EDGE_LOOP('',(#281,#282,#283));
#285=FACE_OUTER_BOUND('',#284,.F.);
#287=CARTESIAN_POINT('',(0.E0,0.E0,0.E0));
#288=DIRECTION('',(1.E0,0.E0,0.E0));
#289=DIRECTION('',(0.E0,-1.E0,0.E0));
#290=AXIS2_PLACEMENT_3D('',#287,#288,#289);
#291=SPHERICAL_SURFACE('',#290,6.E0);
#292=ORIENTED_EDGE('',*,*,#266,.F.);
#293=ORIENTED_EDGE('',*,*,#227,.T.);
#295=ORIENTED_EDGE('',*,*,#294,.T.);
#296=ORIENTED_EDGE('',*,*,#223,.F.);
#297=EDGE_LOOP('',(#292,#293,#295,#296));
#298=FACE_OUTER_BOUND('',#297,.F.);
#300=CARTESIAN_POINT('',(6.248635208502E0,1.148123088076E-14,0.E0));
#301=DIRECTION('',(-1.E0,0.E0,0.E0));
#302=DIRECTION('',(0.E0,1.E0,0.E0));
#303=AXIS2_PLACEMENT_3D('',#300,#301,#302);
#304=CYLINDRICAL_SURFACE('',#303,1.7E0);
#305=ORIENTED_EDGE('',*,*,#280,.F.);
#307=ORIENTED_EDGE('',*,*,#306,.T.);
#309=ORIENTED_EDGE('',*,*,#308,.T.);
#311=ORIENTED_EDGE('',*,*,#310,.F.);
#312=EDGE_LOOP('',(#305,#307,#309,#311));
#313=FACE_OUTER_BOUND('',#312,.F.);
#315=CARTESIAN_POINT('',(6.248635208502E0,1.148123088076E-14,0.E0));
#316=DIRECTION('',(-1.E0,0.E0,0.E0));
#317=DIRECTION('',(0.E0,1.E0,0.E0));
#318=AXIS2_PLACEMENT_3D('',#315,#316,#317);
#319=CYLINDRICAL_SURFACE('',#318,1.7E0);
#320=ORIENTED_EDGE('',*,*,#237,.F.);
#321=ORIENTED_EDGE('',*,*,#310,.T.);
#323=ORIENTED_EDGE('',*,*,#322,.F.);
#324=ORIENTED_EDGE('',*,*,#306,.F.);
#325=EDGE_LOOP('',(#320,#321,#323,#324));
#326=FACE_OUTER_BOUND('',#325,.F.);
#328=CARTESIAN_POINT('',(6.223635208502E0,1.148429249776E-14,0.E0));
#329=DIRECTION('',(-1.E0,0.E0,0.E0));
#330=DIRECTION('',(0.E0,1.E0,0.E0));
#331=AXIS2_PLACEMENT_3D('',#328,#329,#330);
#332=PLANE('',#331);
#333=ORIENTED_EDGE('',*,*,#254,.F.);
#334=ORIENTED_EDGE('',*,*,#269,.T.);
#335=EDGE_LOOP('',(#333,#334));
#336=FACE_OUTER_BOUND('',#335,.F.);
#337=ORIENTED_EDGE('',*,*,#308,.F.);
#338=ORIENTED_EDGE('',*,*,#322,.T.);
#339=EDGE_LOOP('',(#337,#338));
#340=FACE_BOUND('',#339,.F.);
#342=CARTESIAN_POINT('',(0.E0,0.E0,0.E0));
#343=DIRECTION('',(1.E0,0.E0,0.E0));
#344=DIRECTION('',(0.E0,-1.E0,0.E0));
#345=AXIS2_PLACEMENT_3D('',#342,#343,#344);
#346=PLANE('',#345);
#347=ORIENTED_EDGE('',*,*,#294,.F.);
#348=ORIENTED_EDGE('',*,*,#225,.T.);
#349=EDGE_LOOP('',(#347,#348));
#350=FACE_OUTER_BOUND('',#349,.F.);
#352=ORIENTED_EDGE('',*,*,#351,.F.);
#354=ORIENTED_EDGE('',*,*,#353,.T.);
#355=EDGE_LOOP('',(#352,#354));
#356=FACE_BOUND('',#355,.F.);
#358=CARTESIAN_POINT('',(0.E0,0.E0,0.E0));
#359=DIRECTION('',(1.E0,0.E0,0.E0));
#360=DIRECTION('',(0.E0,-1.E0,0.E0));
#361=AXIS2_PLACEMENT_3D('',#358,#359,#360);
#362=SPHERICAL_SURFACE('',#361,5.9E0);
#364=ORIENTED_EDGE('',*,*,#363,.F.);
#365=ORIENTED_EDGE('',*,*,#351,.T.);
#367=ORIENTED_EDGE('',*,*,#366,.T.);
#368=EDGE_LOOP('',(#364,#365,#367));
#369=FACE_OUTER_BOUND('',#368,.F.);
#371=CARTESIAN_POINT('',(0.E0,0.E0,0.E0));
#372=DIRECTION('',(1.E0,0.E0,0.E0));
#373=DIRECTION('',(0.E0,-1.E0,0.E0));
#374=AXIS2_PLACEMENT_3D('',#371,#372,#373);
#375=SPHERICAL_SURFACE('',#374,5.9E0);
#376=ORIENTED_EDGE('',*,*,#363,.T.);
#377=ORIENTED_EDGE('',*,*,#366,.F.);
#378=ORIENTED_EDGE('',*,*,#353,.F.);
#379=EDGE_LOOP('',(#376,#377,#378));
#380=FACE_OUTER_BOUND('',#379,.F.);
#382=CLOSED_SHELL('',(#231,#245,#260,#274,#286,#299,#314,#327,#341,#357,#370,
#381));
#383=MANIFOLD_SOLID_BREP('',#382);
#384=FILL_AREA_STYLE_COLOUR('',#4);
#385=FILL_AREA_STYLE('',(#384));
#386=SURFACE_STYLE_FILL_AREA(#385);
#387=SURFACE_SIDE_STYLE('',(#386));
#388=SURFACE_STYLE_USAGE(.BOTH.,#387);
#389=PRESENTATION_STYLE_ASSIGNMENT((#388));
#14=STYLED_ITEM('',(#389),#383);
#390=CARTESIAN_POINT('',(0.E0,0.E0,0.E0));
#391=DIRECTION('',(0.E0,0.E0,1.E0));
#392=DIRECTION('',(1.E0,0.E0,0.E0));
#393=AXIS2_PLACEMENT_3D('PRT_CSYS_DEF',#390,#391,#392);
#394=CURVE_STYLE('',#20,POSITIVE_LENGTH_MEASURE(2.E-2),#6);
#395=PRESENTATION_STYLE_ASSIGNMENT((#394));
#396=STYLED_ITEM('',(#395),#393);
#397=DIRECTION('',(1.E0,0.E0,0.E0));
#398=VECTOR('',#397,6.E0);
#399=CARTESIAN_POINT('',(0.E0,0.E0,0.E0));
#400=LINE('',#399,#398);
#402=CURVE_STYLE('',#20,POSITIVE_LENGTH_MEASURE(2.E-2),#11);
#403=PRESENTATION_STYLE_ASSIGNMENT((#402));
#404=STYLED_ITEM('',(#403),#401);
#406=PRESENTATION_LAYER_ASSIGNMENT('02___PRT_ALL_AXES_3','',(#401));
#407=PRESENTATION_LAYER_ASSIGNMENT('05___PRT_ALL_DTM_CSYS_10','',(#393));
#408=PRESENTATION_LAYER_ASSIGNMENT('05___PRT_DEF_DTM_CSYS_7','',(#393));
#409=(LENGTH_UNIT()NAMED_UNIT(*)SI_UNIT(.CENTI.,.METRE.));
#410=DIMENSIONAL_EXPONENTS(0.E0,0.E0,0.E0,0.E0,0.E0,0.E0,0.E0);
#411=(NAMED_UNIT(*)PLANE_ANGLE_UNIT()SI_UNIT($,.RADIAN.));
#412=PLANE_ANGLE_MEASURE_WITH_UNIT(PLANE_ANGLE_MEASURE(1.745329251994E-2),#411);
#413=(CONVERSION_BASED_UNIT('DEGREE',#412)NAMED_UNIT(#410)PLANE_ANGLE_UNIT());
#414=(NAMED_UNIT(*)SI_UNIT($,.STERADIAN.)SOLID_ANGLE_UNIT());
#415=UNCERTAINTY_MEASURE_WITH_UNIT(LENGTH_MEASURE(1.807852372422E-3),#409,
'distance_accuracy_value',
'Maximum model space distance between geometric entities at asserted connectivities');
#417=CARTESIAN_POINT('',(0.E0,0.E0,0.E0));
#418=DIRECTION('',(0.E0,0.E0,1.E0));
#419=DIRECTION('',(1.E0,0.E0,0.E0));
#405=GEOMETRIC_SET('',(#401));
#422=CARTESIAN_POINT('',(0.E0,0.E0,0.E0));
#423=DIRECTION('',(0.E0,0.E0,1.E0));
#424=DIRECTION('',(1.E0,0.E0,0.E0));
#427=CARTESIAN_POINT('',(0.E0,0.E0,0.E0));
#428=DIRECTION('',(0.E0,0.E0,1.E0));
#429=DIRECTION('',(1.E0,0.E0,0.E0));
#432=SHAPE_REPRESENTATION_RELATIONSHIP('','',#431,#421);
#433=SHAPE_REPRESENTATION_RELATIONSHIP('','',#431,#426);
#434=MECHANICAL_DESIGN_GEOMETRIC_PRESENTATION_REPRESENTATION('',(#23,#31,#38,
#46,#53,#61,#69,#77,#85,#93,#101,#109,#116,#123,#131,#139,#147,#155,#163,#171,
#179,#187,#14,#396,#404),#416);
#435=APPLICATION_CONTEXT('automotive_design');
#436=APPLICATION_PROTOCOL_DEFINITION('international standard',
'automotive_design',2001,#435);
#437=PRODUCT_DEFINITION_CONTEXT('part definition',#435,'design');
#438=PRODUCT_CONTEXT('',#435,'mechanical');
#439=PRODUCT('HEAD_BACK','HEAD_BACK','NOT SPECIFIED',(#438));
#440=PRODUCT_DEFINITION_FORMATION('3','LAST_VERSION',#439);
#447=(LENGTH_UNIT()NAMED_UNIT(*)SI_UNIT(.CENTI.,.METRE.));
#448=DERIVED_UNIT_ELEMENT(#447,2.E0);
#449=DERIVED_UNIT((#448));
#450=MEASURE_REPRESENTATION_ITEM('surface area measure',AREA_MEASURE(
4.592706751830E2),#449);
#454=(LENGTH_UNIT()NAMED_UNIT(*)SI_UNIT(.CENTI.,.METRE.));
#455=DERIVED_UNIT_ELEMENT(#454,3.E0);
#456=DERIVED_UNIT((#455));
#457=MEASURE_REPRESENTATION_ITEM('volume measure',VOLUME_MEASURE(
2.277756944008E1),#456);
#461=CARTESIAN_POINT('centre point',(3.045482034077E0,0.E0,0.E0));
#1=DRAUGHTING_PRE_DEFINED_COLOUR('green');
#2=COLOUR_RGB('',1.1E-2,1.2E-2,1.E0);
#3=COLOUR_RGB('',1.1E-1,1.1E-1,1.1E-1);
#4=COLOUR_RGB('',3.92E-1,1.2E-2,1.2E-2);
#5=COLOUR_RGB('',4.1E-1,0.E0,2.2E-1);
#6=COLOUR_RGB('',6.666666666667E-1,4.627450980392E-1,2.196078431373E-1);
#7=COLOUR_RGB('',8.784E-1,9.49E-1,1.E0);
#8=COLOUR_RGB('',9.6E-1,9.6E-1,9.6E-1);
#9=COLOUR_RGB('',9.8E-1,6.27E-1,0.E0);
#10=DRAUGHTING_PRE_DEFINED_COLOUR('red');
#11=DRAUGHTING_PRE_DEFINED_COLOUR('yellow');
#12=COLOUR_RGB('',1.E0,1.E0,9.49E-1);
#13=DRAUGHTING_PRE_DEFINED_COLOUR('white');
#19=CIRCLE('',#18,1.8E0);
#28=CIRCLE('',#27,1.7E0);
#43=CIRCLE('',#42,1.8E0);
#58=CIRCLE('',#57,1.8E0);
#66=CIRCLE('',#65,1.7E0);
#74=CIRCLE('',#73,6.E0);
#82=CIRCLE('',#81,6.E0);
#90=CIRCLE('',#89,1.8E0);
#98=CIRCLE('',#97,6.E0);
#106=CIRCLE('',#105,6.E0);
#128=CIRCLE('',#127,1.7E0);
#136=CIRCLE('',#135,1.7E0);
#144=CIRCLE('',#143,6.E0);
#152=CIRCLE('',#151,6.E0);
#160=CIRCLE('',#159,5.9E0);
#168=CIRCLE('',#167,5.9E0);
#176=CIRCLE('',#175,5.9E0);
#184=CIRCLE('',#183,5.9E0);
#221=EDGE_CURVE('',#208,#209,#19,.T.);
#223=EDGE_CURVE('',#209,#197,#106,.T.);
#225=EDGE_CURVE('',#196,#197,#152,.T.);
#227=EDGE_CURVE('',#208,#196,#98,.T.);
#231=ADVANCED_FACE('',(#230),#220,.T.);
#237=EDGE_CURVE('',#212,#213,#28,.T.);
#239=EDGE_CURVE('',#215,#213,#82,.T.);
#241=EDGE_CURVE('',#215,#212,#74,.T.);
#245=ADVANCED_FACE('',(#244),#236,.T.);
#252=EDGE_CURVE('',#204,#208,#35,.T.);
#254=EDGE_CURVE('',#204,#205,#43,.T.);
#256=EDGE_CURVE('',#205,#209,#50,.T.);
#260=ADVANCED_FACE('',(#259),#250,.T.);
#266=EDGE_CURVE('',#208,#209,#90,.T.);
#269=EDGE_CURVE('',#204,#205,#58,.T.);
#274=ADVANCED_FACE('',(#273),#265,.T.);
#280=EDGE_CURVE('',#213,#212,#66,.T.);
#286=ADVANCED_FACE('',(#285),#279,.T.);
#294=EDGE_CURVE('',#196,#197,#144,.T.);
#299=ADVANCED_FACE('',(#298),#291,.T.);
#306=EDGE_CURVE('',#213,#200,#120,.T.);
#308=EDGE_CURVE('',#200,#201,#128,.T.);
#310=EDGE_CURVE('',#212,#201,#113,.T.);
#314=ADVANCED_FACE('',(#313),#304,.F.);
#322=EDGE_CURVE('',#200,#201,#136,.T.);
#327=ADVANCED_FACE('',(#326),#319,.F.);
#341=ADVANCED_FACE('',(#336,#340),#332,.F.);
#351=EDGE_CURVE('',#190,#193,#160,.T.);
#353=EDGE_CURVE('',#190,#193,#184,.T.);
#357=ADVANCED_FACE('',(#350,#356),#346,.F.);
#363=EDGE_CURVE('',#190,#191,#168,.T.);
#366=EDGE_CURVE('',#193,#191,#176,.T.);
#370=ADVANCED_FACE('',(#369),#362,.F.);
#381=ADVANCED_FACE('',(#380),#375,.F.);
#401=TRIMMED_CURVE('A_1',#400,(PARAMETER_VALUE(0.E0)),(PARAMETER_VALUE(1.E0)),
.T.,.UNSPECIFIED.);
#416=(GEOMETRIC_REPRESENTATION_CONTEXT(3)GLOBAL_UNCERTAINTY_ASSIGNED_CONTEXT((
#415))GLOBAL_UNIT_ASSIGNED_CONTEXT((#409,#413,#414))REPRESENTATION_CONTEXT
('ID1','external'));
#420=AXIS2_PLACEMENT_3D('',#417,#418,#419);
#421=ADVANCED_BREP_SHAPE_REPRESENTATION('',(#420,#383),#416);
#425=AXIS2_PLACEMENT_3D('',#422,#423,#424);
#426=GEOMETRICALLY_BOUNDED_SURFACE_SHAPE_REPRESENTATION('',(#425,#405),#416);
#430=AXIS2_PLACEMENT_3D('',#427,#428,#429);
#431=SHAPE_REPRESENTATION('',(#430,#393),#416);
#441=PRODUCT_DEFINITION('part definition','',#440,#437);
#442=PRODUCT_DEFINITION_SHAPE('','SHAPE FOR HEAD_BACK.',#441);
#443=SHAPE_REPRESENTATION('',(#383),#416);
#444=SHAPE_ASPECT('','solid data associated with HEAD_BACK',#442,.F.);
#445=PROPERTY_DEFINITION('',
'shape for solid data with which properties are associated',#444);
#446=SHAPE_DEFINITION_REPRESENTATION(#445,#443);
#451=PROPERTY_DEFINITION('geometric_validation_property','area of HEAD_BACK',
#444);
#452=REPRESENTATION('surface area',(#450),#416);
#453=PROPERTY_DEFINITION_REPRESENTATION(#451,#452);
#458=PROPERTY_DEFINITION('geometric_validation_property','volume of HEAD_BACK',
#444);
#459=REPRESENTATION('volume',(#457),#416);
#460=PROPERTY_DEFINITION_REPRESENTATION(#458,#459);
#462=PROPERTY_DEFINITION('geometric_validation_property',
'centroid of HEAD_BACK',#444);
#463=REPRESENTATION('centroid',(#461),#416);
#464=PROPERTY_DEFINITION_REPRESENTATION(#462,#463);
#465=SHAPE_DEFINITION_REPRESENTATION(#442,#431);
#466=PRODUCT_RELATED_PRODUCT_CATEGORY('part','',(#439));
ENDSEC;
END-ISO-10303-21;
