ISO-10303-21;
HEADER;
FILE_DESCRIPTION((''),'2;1');
FILE_NAME('FOOT_FRONT','2008-09-05T',('mmeadows'),(''),
'PRO/ENGINEER BY PARAMETRIC TECHNOLOGY CORPORATION, 2008340',
'PRO/ENGINEER BY PARAMETRIC TECHNOLOGY CORPORATION, 2008340','');
FILE_SCHEMA(('AUTOMOTIVE_DESIGN { 1 0 10303 214 1 1 1 1 }'));
ENDSEC;
DATA;
#16=CARTESIAN_POINT('',(3.E0,0.E0,0.E0));
#17=DIRECTION('',(0.E0,0.E0,1.E0));
#18=DIRECTION('',(1.E0,0.E0,0.E0));
#19=AXIS2_PLACEMENT_3D('',#16,#17,#18);
#21=DRAUGHTING_PRE_DEFINED_CURVE_FONT('continuous');
#22=CURVE_STYLE('',#21,POSITIVE_LENGTH_MEASURE(2.E-2),#11);
#23=PRESENTATION_STYLE_ASSIGNMENT((#22));
#24=STYLED_ITEM('',(#23),#20);
#25=CARTESIAN_POINT('',(3.E0,0.E0,0.E0));
#26=DIRECTION('',(0.E0,0.E0,-1.E0));
#27=DIRECTION('',(1.E0,0.E0,0.E0));
#28=AXIS2_PLACEMENT_3D('',#25,#26,#27);
#30=CURVE_STYLE('',#21,POSITIVE_LENGTH_MEASURE(2.E-2),#11);
#31=PRESENTATION_STYLE_ASSIGNMENT((#30));
#32=STYLED_ITEM('',(#31),#29);
#33=CARTESIAN_POINT('',(1.5E0,0.E0,0.E0));
#34=DIRECTION('',(1.E0,0.E0,0.E0));
#35=DIRECTION('',(0.E0,9.682458365519E-1,-2.5E-1));
#36=AXIS2_PLACEMENT_3D('',#33,#34,#35);
#38=CURVE_STYLE('',#21,POSITIVE_LENGTH_MEASURE(2.E-2),#11);
#39=PRESENTATION_STYLE_ASSIGNMENT((#38));
#40=STYLED_ITEM('',(#39),#37);
#41=DIRECTION('',(1.E0,0.E0,0.E0));
#42=VECTOR('',#41,1.5E0);
#43=CARTESIAN_POINT('',(0.E0,9.682458365519E-1,-2.5E-1));
#44=LINE('',#43,#42);
#45=CURVE_STYLE('',#21,POSITIVE_LENGTH_MEASURE(2.E-2),#11);
#46=PRESENTATION_STYLE_ASSIGNMENT((#45));
#47=STYLED_ITEM('',(#46),#44);
#48=DIRECTION('',(-1.E0,0.E0,0.E0));
#49=VECTOR('',#48,3.E0);
#50=CARTESIAN_POINT('',(3.E0,-1.E0,0.E0));
#51=LINE('',#50,#49);
#52=CURVE_STYLE('',#21,POSITIVE_LENGTH_MEASURE(2.E-2),#11);
#53=PRESENTATION_STYLE_ASSIGNMENT((#52));
#54=STYLED_ITEM('',(#53),#51);
#55=CARTESIAN_POINT('',(3.E0,0.E0,0.E0));
#56=DIRECTION('',(-1.E0,0.E0,0.E0));
#57=DIRECTION('',(0.E0,1.E0,0.E0));
#58=AXIS2_PLACEMENT_3D('',#55,#56,#57);
#60=CURVE_STYLE('',#21,POSITIVE_LENGTH_MEASURE(2.E-2),#11);
#61=PRESENTATION_STYLE_ASSIGNMENT((#60));
#62=STYLED_ITEM('',(#61),#59);
#63=DIRECTION('',(-1.E0,0.E0,0.E0));
#64=VECTOR('',#63,1.5E0);
#65=CARTESIAN_POINT('',(3.E0,1.E0,0.E0));
#66=LINE('',#65,#64);
#67=CURVE_STYLE('',#21,POSITIVE_LENGTH_MEASURE(2.E-2),#11);
#68=PRESENTATION_STYLE_ASSIGNMENT((#67));
#69=STYLED_ITEM('',(#68),#66);
#70=DIRECTION('',(0.E0,1.E0,0.E0));
#71=VECTOR('',#70,8.175416344815E-2);
#72=CARTESIAN_POINT('',(1.5E0,9.682458365519E-1,2.5E-1));
#73=LINE('',#72,#71);
#74=CURVE_STYLE('',#21,POSITIVE_LENGTH_MEASURE(2.E-2),#11);
#75=PRESENTATION_STYLE_ASSIGNMENT((#74));
#76=STYLED_ITEM('',(#75),#73);
#77=DIRECTION('',(0.E0,0.E0,-1.E0));
#78=VECTOR('',#77,5.E-1);
#79=CARTESIAN_POINT('',(1.5E0,1.05E0,2.5E-1));
#80=LINE('',#79,#78);
#81=CURVE_STYLE('',#21,POSITIVE_LENGTH_MEASURE(2.E-2),#11);
#82=PRESENTATION_STYLE_ASSIGNMENT((#81));
#83=STYLED_ITEM('',(#82),#80);
#84=DIRECTION('',(0.E0,-1.E0,0.E0));
#85=VECTOR('',#84,8.175416344815E-2);
#86=CARTESIAN_POINT('',(1.5E0,1.05E0,-2.5E-1));
#87=LINE('',#86,#85);
#88=CURVE_STYLE('',#21,POSITIVE_LENGTH_MEASURE(2.E-2),#11);
#89=PRESENTATION_STYLE_ASSIGNMENT((#88));
#90=STYLED_ITEM('',(#89),#87);
#91=CARTESIAN_POINT('',(1.5E0,0.E0,0.E0));
#92=DIRECTION('',(1.E0,0.E0,0.E0));
#93=DIRECTION('',(0.E0,1.E0,0.E0));
#94=AXIS2_PLACEMENT_3D('',#91,#92,#93);
#96=CURVE_STYLE('',#21,POSITIVE_LENGTH_MEASURE(2.E-2),#11);
#97=PRESENTATION_STYLE_ASSIGNMENT((#96));
#98=STYLED_ITEM('',(#97),#95);
#99=CARTESIAN_POINT('',(3.E0,0.E0,0.E0));
#100=DIRECTION('',(1.E0,0.E0,0.E0));
#101=DIRECTION('',(0.E0,1.E0,0.E0));
#102=AXIS2_PLACEMENT_3D('',#99,#100,#101);
#104=CURVE_STYLE('',#21,POSITIVE_LENGTH_MEASURE(2.E-2),#11);
#105=PRESENTATION_STYLE_ASSIGNMENT((#104));
#106=STYLED_ITEM('',(#105),#103);
#107=DIRECTION('',(1.E0,0.E0,0.E0));
#108=VECTOR('',#107,1.5E0);
#109=CARTESIAN_POINT('',(0.E0,9.682458365519E-1,2.5E-1));
#110=LINE('',#109,#108);
#111=CURVE_STYLE('',#21,POSITIVE_LENGTH_MEASURE(2.E-2),#11);
#112=PRESENTATION_STYLE_ASSIGNMENT((#111));
#113=STYLED_ITEM('',(#112),#110);
#114=CARTESIAN_POINT('',(0.E0,0.E0,0.E0));
#115=DIRECTION('',(-1.E0,0.E0,0.E0));
#116=DIRECTION('',(0.E0,9.682458365519E-1,-2.5E-1));
#117=AXIS2_PLACEMENT_3D('',#114,#115,#116);
#119=CURVE_STYLE('',#21,POSITIVE_LENGTH_MEASURE(2.E-2),#11);
#120=PRESENTATION_STYLE_ASSIGNMENT((#119));
#121=STYLED_ITEM('',(#120),#118);
#122=DIRECTION('',(0.E0,-1.E0,0.E0));
#123=VECTOR('',#122,8.175416344815E-2);
#124=CARTESIAN_POINT('',(0.E0,1.05E0,-2.5E-1));
#125=LINE('',#124,#123);
#126=CURVE_STYLE('',#21,POSITIVE_LENGTH_MEASURE(2.E-2),#11);
#127=PRESENTATION_STYLE_ASSIGNMENT((#126));
#128=STYLED_ITEM('',(#127),#125);
#129=DIRECTION('',(0.E0,0.E0,-1.E0));
#130=VECTOR('',#129,5.E-1);
#131=CARTESIAN_POINT('',(0.E0,1.05E0,2.5E-1));
#132=LINE('',#131,#130);
#133=CURVE_STYLE('',#21,POSITIVE_LENGTH_MEASURE(2.E-2),#11);
#134=PRESENTATION_STYLE_ASSIGNMENT((#133));
#135=STYLED_ITEM('',(#134),#132);
#136=DIRECTION('',(0.E0,1.E0,0.E0));
#137=VECTOR('',#136,8.175416344815E-2);
#138=CARTESIAN_POINT('',(0.E0,9.682458365519E-1,2.5E-1));
#139=LINE('',#138,#137);
#140=CURVE_STYLE('',#21,POSITIVE_LENGTH_MEASURE(2.E-2),#11);
#141=PRESENTATION_STYLE_ASSIGNMENT((#140));
#142=STYLED_ITEM('',(#141),#139);
#143=CARTESIAN_POINT('',(0.E0,0.E0,0.E0));
#144=DIRECTION('',(1.E0,0.E0,0.E0));
#145=DIRECTION('',(0.E0,9.682458365519E-1,2.5E-1));
#146=AXIS2_PLACEMENT_3D('',#143,#144,#145);
#148=CURVE_STYLE('',#21,POSITIVE_LENGTH_MEASURE(2.E-2),#11);
#149=PRESENTATION_STYLE_ASSIGNMENT((#148));
#150=STYLED_ITEM('',(#149),#147);
#151=CARTESIAN_POINT('',(0.E0,0.E0,0.E0));
#152=DIRECTION('',(1.E0,0.E0,0.E0));
#153=DIRECTION('',(0.E0,1.E0,0.E0));
#154=AXIS2_PLACEMENT_3D('',#151,#152,#153);
#156=CURVE_STYLE('',#21,POSITIVE_LENGTH_MEASURE(2.E-2),#11);
#157=PRESENTATION_STYLE_ASSIGNMENT((#156));
#158=STYLED_ITEM('',(#157),#155);
#159=DIRECTION('',(1.E0,0.E0,0.E0));
#160=VECTOR('',#159,3.E0);
#161=CARTESIAN_POINT('',(0.E0,9.E-1,0.E0));
#162=LINE('',#161,#160);
#163=CURVE_STYLE('',#21,POSITIVE_LENGTH_MEASURE(2.E-2),#11);
#164=PRESENTATION_STYLE_ASSIGNMENT((#163));
#165=STYLED_ITEM('',(#164),#162);
#166=DIRECTION('',(1.E0,0.E0,0.E0));
#167=VECTOR('',#166,3.E0);
#168=CARTESIAN_POINT('',(0.E0,-9.E-1,0.E0));
#169=LINE('',#168,#167);
#170=CURVE_STYLE('',#21,POSITIVE_LENGTH_MEASURE(2.E-2),#11);
#171=PRESENTATION_STYLE_ASSIGNMENT((#170));
#172=STYLED_ITEM('',(#171),#169);
#173=CARTESIAN_POINT('',(0.E0,0.E0,0.E0));
#174=DIRECTION('',(-1.E0,0.E0,0.E0));
#175=DIRECTION('',(0.E0,1.E0,0.E0));
#176=AXIS2_PLACEMENT_3D('',#173,#174,#175);
#178=CURVE_STYLE('',#21,POSITIVE_LENGTH_MEASURE(2.E-2),#11);
#179=PRESENTATION_STYLE_ASSIGNMENT((#178));
#180=STYLED_ITEM('',(#179),#177);
#181=CARTESIAN_POINT('',(3.E0,0.E0,0.E0));
#182=DIRECTION('',(0.E0,0.E0,-1.E0));
#183=DIRECTION('',(0.E0,1.E0,0.E0));
#184=AXIS2_PLACEMENT_3D('',#181,#182,#183);
#186=CURVE_STYLE('',#21,POSITIVE_LENGTH_MEASURE(2.E-2),#11);
#187=PRESENTATION_STYLE_ASSIGNMENT((#186));
#188=STYLED_ITEM('',(#187),#185);
#189=CARTESIAN_POINT('',(3.E0,0.E0,0.E0));
#190=DIRECTION('',(0.E0,0.E0,1.E0));
#191=DIRECTION('',(0.E0,-1.E0,0.E0));
#192=AXIS2_PLACEMENT_3D('',#189,#190,#191);
#194=CURVE_STYLE('',#21,POSITIVE_LENGTH_MEASURE(2.E-2),#11);
#195=PRESENTATION_STYLE_ASSIGNMENT((#194));
#196=STYLED_ITEM('',(#195),#193);
#197=CARTESIAN_POINT('',(3.E0,0.E0,0.E0));
#198=DIRECTION('',(-1.E0,0.E0,0.E0));
#199=DIRECTION('',(0.E0,1.E0,0.E0));
#200=AXIS2_PLACEMENT_3D('',#197,#198,#199);
#202=CURVE_STYLE('',#21,POSITIVE_LENGTH_MEASURE(2.E-2),#11);
#203=PRESENTATION_STYLE_ASSIGNMENT((#202));
#204=STYLED_ITEM('',(#203),#201);
#205=CARTESIAN_POINT('',(3.E0,0.E0,0.E0));
#206=DIRECTION('',(1.E0,0.E0,0.E0));
#207=DIRECTION('',(0.E0,1.E0,0.E0));
#208=AXIS2_PLACEMENT_3D('',#205,#206,#207);
#210=CURVE_STYLE('',#21,POSITIVE_LENGTH_MEASURE(2.E-2),#11);
#211=PRESENTATION_STYLE_ASSIGNMENT((#210));
#212=STYLED_ITEM('',(#211),#209);
#213=DIRECTION('',(1.E0,0.E0,0.E0));
#214=VECTOR('',#213,1.5E0);
#215=CARTESIAN_POINT('',(0.E0,1.05E0,-2.5E-1));
#216=LINE('',#215,#214);
#217=CURVE_STYLE('',#21,POSITIVE_LENGTH_MEASURE(2.E-2),#11);
#218=PRESENTATION_STYLE_ASSIGNMENT((#217));
#219=STYLED_ITEM('',(#218),#216);
#220=DIRECTION('',(1.E0,0.E0,0.E0));
#221=VECTOR('',#220,1.5E0);
#222=CARTESIAN_POINT('',(0.E0,1.05E0,2.5E-1));
#223=LINE('',#222,#221);
#224=CURVE_STYLE('',#21,POSITIVE_LENGTH_MEASURE(2.E-2),#11);
#225=PRESENTATION_STYLE_ASSIGNMENT((#224));
#226=STYLED_ITEM('',(#225),#223);
#227=CARTESIAN_POINT('',(4.E0,0.E0,0.E0));
#228=CARTESIAN_POINT('',(3.E0,1.E0,0.E0));
#229=VERTEX_POINT('',#227);
#230=VERTEX_POINT('',#228);
#231=CARTESIAN_POINT('',(0.E0,9.E-1,0.E0));
#232=CARTESIAN_POINT('',(3.E0,9.E-1,0.E0));
#233=VERTEX_POINT('',#231);
#234=VERTEX_POINT('',#232);
#235=CARTESIAN_POINT('',(3.9E0,0.E0,0.E0));
#236=VERTEX_POINT('',#235);
#237=CARTESIAN_POINT('',(3.E0,-1.E0,0.E0));
#238=VERTEX_POINT('',#237);
#239=CARTESIAN_POINT('',(0.E0,-1.E0,0.E0));
#240=VERTEX_POINT('',#239);
#241=CARTESIAN_POINT('',(0.E0,-9.E-1,0.E0));
#242=CARTESIAN_POINT('',(3.E0,-9.E-1,0.E0));
#243=VERTEX_POINT('',#241);
#244=VERTEX_POINT('',#242);
#245=CARTESIAN_POINT('',(0.E0,1.05E0,2.5E-1));
#246=CARTESIAN_POINT('',(0.E0,1.05E0,-2.5E-1));
#247=VERTEX_POINT('',#245);
#248=VERTEX_POINT('',#246);
#249=CARTESIAN_POINT('',(1.5E0,1.05E0,2.5E-1));
#250=CARTESIAN_POINT('',(1.5E0,1.05E0,-2.5E-1));
#251=VERTEX_POINT('',#249);
#252=VERTEX_POINT('',#250);
#253=CARTESIAN_POINT('',(1.5E0,1.E0,0.E0));
#254=CARTESIAN_POINT('',(1.5E0,9.682458365519E-1,2.5E-1));
#255=VERTEX_POINT('',#253);
#256=VERTEX_POINT('',#254);
#257=CARTESIAN_POINT('',(0.E0,9.682458365519E-1,2.5E-1));
#258=VERTEX_POINT('',#257);
#259=CARTESIAN_POINT('',(1.5E0,9.682458365519E-1,-2.5E-1));
#260=VERTEX_POINT('',#259);
#261=CARTESIAN_POINT('',(0.E0,9.682458365519E-1,-2.5E-1));
#262=VERTEX_POINT('',#261);
#263=CARTESIAN_POINT('',(3.E0,0.E0,0.E0));
#264=DIRECTION('',(1.E0,0.E0,0.E0));
#265=DIRECTION('',(0.E0,-1.E0,0.E0));
#266=AXIS2_PLACEMENT_3D('',#263,#264,#265);
#267=SPHERICAL_SURFACE('',#266,1.E0);
#269=ORIENTED_EDGE('',*,*,#268,.F.);
#271=ORIENTED_EDGE('',*,*,#270,.T.);
#273=ORIENTED_EDGE('',*,*,#272,.F.);
#274=EDGE_LOOP('',(#269,#271,#273));
#275=FACE_OUTER_BOUND('',#274,.F.);
#277=CARTESIAN_POINT('',(3.E0,0.E0,0.E0));
#278=DIRECTION('',(1.E0,0.E0,0.E0));
#279=DIRECTION('',(0.E0,-1.E0,0.E0));
#280=AXIS2_PLACEMENT_3D('',#277,#278,#279);
#281=SPHERICAL_SURFACE('',#280,1.E0);
#282=ORIENTED_EDGE('',*,*,#268,.T.);
#284=ORIENTED_EDGE('',*,*,#283,.T.);
#285=ORIENTED_EDGE('',*,*,#270,.F.);
#286=EDGE_LOOP('',(#282,#284,#285));
#287=FACE_OUTER_BOUND('',#286,.F.);
#289=CARTESIAN_POINT('',(-2.E-1,0.E0,0.E0));
#290=DIRECTION('',(1.E0,0.E0,0.E0));
#291=DIRECTION('',(0.E0,-1.E0,0.E0));
#292=AXIS2_PLACEMENT_3D('',#289,#290,#291);
#293=CYLINDRICAL_SURFACE('',#292,1.E0);
#295=ORIENTED_EDGE('',*,*,#294,.F.);
#297=ORIENTED_EDGE('',*,*,#296,.F.);
#299=ORIENTED_EDGE('',*,*,#298,.T.);
#301=ORIENTED_EDGE('',*,*,#300,.F.);
#302=ORIENTED_EDGE('',*,*,#283,.F.);
#304=ORIENTED_EDGE('',*,*,#303,.T.);
#305=EDGE_LOOP('',(#295,#297,#299,#301,#302,#304));
#306=FACE_OUTER_BOUND('',#305,.F.);
#308=CARTESIAN_POINT('',(1.5E0,0.E0,0.E0));
#309=DIRECTION('',(-1.E0,0.E0,0.E0));
#310=DIRECTION('',(0.E0,0.E0,1.E0));
#311=AXIS2_PLACEMENT_3D('',#308,#309,#310);
#312=PLANE('',#311);
#314=ORIENTED_EDGE('',*,*,#313,.T.);
#316=ORIENTED_EDGE('',*,*,#315,.T.);
#318=ORIENTED_EDGE('',*,*,#317,.T.);
#320=ORIENTED_EDGE('',*,*,#319,.T.);
#321=ORIENTED_EDGE('',*,*,#294,.T.);
#322=EDGE_LOOP('',(#314,#316,#318,#320,#321));
#323=FACE_OUTER_BOUND('',#322,.F.);
#325=CARTESIAN_POINT('',(-2.E-1,0.E0,0.E0));
#326=DIRECTION('',(1.E0,0.E0,0.E0));
#327=DIRECTION('',(0.E0,-1.E0,0.E0));
#328=AXIS2_PLACEMENT_3D('',#325,#326,#327);
#329=CYLINDRICAL_SURFACE('',#328,1.E0);
#330=ORIENTED_EDGE('',*,*,#313,.F.);
#331=ORIENTED_EDGE('',*,*,#303,.F.);
#332=ORIENTED_EDGE('',*,*,#272,.T.);
#333=ORIENTED_EDGE('',*,*,#300,.T.);
#335=ORIENTED_EDGE('',*,*,#334,.F.);
#337=ORIENTED_EDGE('',*,*,#336,.T.);
#338=EDGE_LOOP('',(#330,#331,#332,#333,#335,#337));
#339=FACE_OUTER_BOUND('',#338,.F.);
#341=CARTESIAN_POINT('',(0.E0,0.E0,0.E0));
#342=DIRECTION('',(1.E0,0.E0,0.E0));
#343=DIRECTION('',(0.E0,-1.E0,0.E0));
#344=AXIS2_PLACEMENT_3D('',#341,#342,#343);
#345=PLANE('',#344);
#346=ORIENTED_EDGE('',*,*,#298,.F.);
#348=ORIENTED_EDGE('',*,*,#347,.F.);
#350=ORIENTED_EDGE('',*,*,#349,.F.);
#352=ORIENTED_EDGE('',*,*,#351,.F.);
#353=ORIENTED_EDGE('',*,*,#334,.T.);
#354=EDGE_LOOP('',(#346,#348,#350,#352,#353));
#355=FACE_OUTER_BOUND('',#354,.F.);
#357=ORIENTED_EDGE('',*,*,#356,.F.);
#359=ORIENTED_EDGE('',*,*,#358,.T.);
#360=EDGE_LOOP('',(#357,#359));
#361=FACE_BOUND('',#360,.F.);
#363=CARTESIAN_POINT('',(-2.E-1,0.E0,0.E0));
#364=DIRECTION('',(1.E0,0.E0,0.E0));
#365=DIRECTION('',(0.E0,-1.E0,0.E0));
#366=AXIS2_PLACEMENT_3D('',#363,#364,#365);
#367=CYLINDRICAL_SURFACE('',#366,9.E-1);
#369=ORIENTED_EDGE('',*,*,#368,.F.);
#370=ORIENTED_EDGE('',*,*,#356,.T.);
#372=ORIENTED_EDGE('',*,*,#371,.T.);
#374=ORIENTED_EDGE('',*,*,#373,.F.);
#375=EDGE_LOOP('',(#369,#370,#372,#374));
#376=FACE_OUTER_BOUND('',#375,.F.);
#378=CARTESIAN_POINT('',(-2.E-1,0.E0,0.E0));
#379=DIRECTION('',(1.E0,0.E0,0.E0));
#380=DIRECTION('',(0.E0,-1.E0,0.E0));
#381=AXIS2_PLACEMENT_3D('',#378,#379,#380);
#382=CYLINDRICAL_SURFACE('',#381,9.E-1);
#383=ORIENTED_EDGE('',*,*,#368,.T.);
#385=ORIENTED_EDGE('',*,*,#384,.T.);
#386=ORIENTED_EDGE('',*,*,#371,.F.);
#387=ORIENTED_EDGE('',*,*,#358,.F.);
#388=EDGE_LOOP('',(#383,#385,#386,#387));
#389=FACE_OUTER_BOUND('',#388,.F.);
#391=CARTESIAN_POINT('',(3.E0,0.E0,0.E0));
#392=DIRECTION('',(1.E0,0.E0,0.E0));
#393=DIRECTION('',(0.E0,-1.E0,0.E0));
#394=AXIS2_PLACEMENT_3D('',#391,#392,#393);
#395=SPHERICAL_SURFACE('',#394,9.E-1);
#397=ORIENTED_EDGE('',*,*,#396,.T.);
#399=ORIENTED_EDGE('',*,*,#398,.F.);
#400=ORIENTED_EDGE('',*,*,#384,.F.);
#401=EDGE_LOOP('',(#397,#399,#400));
#402=FACE_OUTER_BOUND('',#401,.F.);
#404=CARTESIAN_POINT('',(3.E0,0.E0,0.E0));
#405=DIRECTION('',(1.E0,0.E0,0.E0));
#406=DIRECTION('',(0.E0,-1.E0,0.E0));
#407=AXIS2_PLACEMENT_3D('',#404,#405,#406);
#408=SPHERICAL_SURFACE('',#407,9.E-1);
#409=ORIENTED_EDGE('',*,*,#396,.F.);
#410=ORIENTED_EDGE('',*,*,#373,.T.);
#411=ORIENTED_EDGE('',*,*,#398,.T.);
#412=EDGE_LOOP('',(#409,#410,#411));
#413=FACE_OUTER_BOUND('',#412,.F.);
#415=CARTESIAN_POINT('',(0.E0,1.05E0,-2.5E-1));
#416=DIRECTION('',(0.E0,0.E0,-1.E0));
#417=DIRECTION('',(0.E0,-1.E0,0.E0));
#418=AXIS2_PLACEMENT_3D('',#415,#416,#417);
#419=PLANE('',#418);
#420=ORIENTED_EDGE('',*,*,#296,.T.);
#421=ORIENTED_EDGE('',*,*,#319,.F.);
#423=ORIENTED_EDGE('',*,*,#422,.F.);
#424=ORIENTED_EDGE('',*,*,#347,.T.);
#425=EDGE_LOOP('',(#420,#421,#423,#424));
#426=FACE_OUTER_BOUND('',#425,.F.);
#428=CARTESIAN_POINT('',(0.E0,1.05E0,2.5E-1));
#429=DIRECTION('',(0.E0,1.E0,0.E0));
#430=DIRECTION('',(0.E0,0.E0,-1.E0));
#431=AXIS2_PLACEMENT_3D('',#428,#429,#430);
#432=PLANE('',#431);
#433=ORIENTED_EDGE('',*,*,#349,.T.);
#434=ORIENTED_EDGE('',*,*,#422,.T.);
#435=ORIENTED_EDGE('',*,*,#317,.F.);
#437=ORIENTED_EDGE('',*,*,#436,.F.);
#438=EDGE_LOOP('',(#433,#434,#435,#437));
#439=FACE_OUTER_BOUND('',#438,.F.);
#441=CARTESIAN_POINT('',(0.E0,9.5E-1,2.5E-1));
#442=DIRECTION('',(0.E0,0.E0,1.E0));
#443=DIRECTION('',(0.E0,1.E0,0.E0));
#444=AXIS2_PLACEMENT_3D('',#441,#442,#443);
#445=PLANE('',#444);
#446=ORIENTED_EDGE('',*,*,#336,.F.);
#447=ORIENTED_EDGE('',*,*,#351,.T.);
#448=ORIENTED_EDGE('',*,*,#436,.T.);
#449=ORIENTED_EDGE('',*,*,#315,.F.);
#450=EDGE_LOOP('',(#446,#447,#448,#449));
#451=FACE_OUTER_BOUND('',#450,.F.);
#453=CLOSED_SHELL('',(#276,#288,#307,#324,#340,#362,#377,#390,#403,#414,#427,
#440,#452));
#454=MANIFOLD_SOLID_BREP('',#453);
#455=FILL_AREA_STYLE_COLOUR('',#11);
#456=FILL_AREA_STYLE('',(#455));
#457=SURFACE_STYLE_FILL_AREA(#456);
#458=SURFACE_SIDE_STYLE('',(#457));
#459=SURFACE_STYLE_USAGE(.BOTH.,#458);
#460=PRESENTATION_STYLE_ASSIGNMENT((#459));
#15=STYLED_ITEM('',(#460),#454);
#461=CARTESIAN_POINT('',(0.E0,0.E0,0.E0));
#462=DIRECTION('',(0.E0,0.E0,1.E0));
#463=DIRECTION('',(1.E0,0.E0,0.E0));
#464=AXIS2_PLACEMENT_3D('PRT_CSYS_DEF',#461,#462,#463);
#465=CURVE_STYLE('',#21,POSITIVE_LENGTH_MEASURE(2.E-2),#6);
#466=PRESENTATION_STYLE_ASSIGNMENT((#465));
#467=STYLED_ITEM('',(#466),#464);
#468=DIRECTION('',(1.E0,0.E0,0.E0));
#469=VECTOR('',#468,4.E0);
#470=CARTESIAN_POINT('',(0.E0,0.E0,0.E0));
#471=LINE('',#470,#469);
#473=CURVE_STYLE('',#21,POSITIVE_LENGTH_MEASURE(2.E-2),#12);
#474=PRESENTATION_STYLE_ASSIGNMENT((#473));
#475=STYLED_ITEM('',(#474),#472);
#477=CARTESIAN_POINT('',(0.E0,1.05E0,0.E0));
#478=DIRECTION('',(-1.E0,0.E0,0.E0));
#479=DIRECTION('',(0.E0,0.E0,1.E0));
#480=AXIS2_PLACEMENT_3D('CS0',#477,#478,#479);
#481=CURVE_STYLE('',#21,POSITIVE_LENGTH_MEASURE(2.E-2),#6);
#482=PRESENTATION_STYLE_ASSIGNMENT((#481));
#483=STYLED_ITEM('',(#482),#480);
#484=PRESENTATION_LAYER_ASSIGNMENT('02___PRT_ALL_AXES_7','',(#472));
#485=PRESENTATION_LAYER_ASSIGNMENT('05___PRT_ALL_DTM_CSYS_7','',(#464,#480));
#486=PRESENTATION_LAYER_ASSIGNMENT('05___PRT_DEF_DTM_CSYS_3','',(#464));
#487=(LENGTH_UNIT()NAMED_UNIT(*)SI_UNIT(.CENTI.,.METRE.));
#488=DIMENSIONAL_EXPONENTS(0.E0,0.E0,0.E0,0.E0,0.E0,0.E0,0.E0);
#489=(NAMED_UNIT(*)PLANE_ANGLE_UNIT()SI_UNIT($,.RADIAN.));
#490=PLANE_ANGLE_MEASURE_WITH_UNIT(PLANE_ANGLE_MEASURE(1.745329251994E-2),#489);
#491=(CONVERSION_BASED_UNIT('DEGREE',#490)NAMED_UNIT(#488)PLANE_ANGLE_UNIT());
#492=(NAMED_UNIT(*)SI_UNIT($,.STERADIAN.)SOLID_ANGLE_UNIT());
#493=UNCERTAINTY_MEASURE_WITH_UNIT(LENGTH_MEASURE(4.919704434729E-4),#487,
'distance_accuracy_value',
'Maximum model space distance between geometric entities at asserted connectivities');
#495=CARTESIAN_POINT('',(0.E0,0.E0,0.E0));
#496=DIRECTION('',(0.E0,0.E0,1.E0));
#497=DIRECTION('',(1.E0,0.E0,0.E0));
#476=GEOMETRIC_SET('',(#472));
#500=CARTESIAN_POINT('',(0.E0,0.E0,0.E0));
#501=DIRECTION('',(0.E0,0.E0,1.E0));
#502=DIRECTION('',(1.E0,0.E0,0.E0));
#505=CARTESIAN_POINT('',(0.E0,0.E0,0.E0));
#506=DIRECTION('',(0.E0,0.E0,1.E0));
#507=DIRECTION('',(1.E0,0.E0,0.E0));
#510=SHAPE_REPRESENTATION_RELATIONSHIP('','',#509,#499);
#511=SHAPE_REPRESENTATION_RELATIONSHIP('','',#509,#504);
#512=MECHANICAL_DESIGN_GEOMETRIC_PRESENTATION_REPRESENTATION('',(#24,#32,#40,
#47,#54,#62,#69,#76,#83,#90,#98,#106,#113,#121,#128,#135,#142,#150,#158,#165,
#172,#180,#188,#196,#204,#212,#219,#226,#15,#467,#475,#483),#494);
#513=APPLICATION_CONTEXT('automotive_design');
#514=APPLICATION_PROTOCOL_DEFINITION('international standard',
'automotive_design',2001,#513);
#515=PRODUCT_DEFINITION_CONTEXT('part definition',#513,'design');
#516=PRODUCT_CONTEXT('',#513,'mechanical');
#517=PRODUCT('FOOT_FRONT','FOOT_FRONT','NOT SPECIFIED',(#516));
#518=PRODUCT_DEFINITION_FORMATION('2','LAST_VERSION',#517);
#525=(LENGTH_UNIT()NAMED_UNIT(*)SI_UNIT(.CENTI.,.METRE.));
#526=DERIVED_UNIT_ELEMENT(#525,2.E0);
#527=DERIVED_UNIT((#526));
#528=MEASURE_REPRESENTATION_ITEM('surface area measure',AREA_MEASURE(
4.808136255751E1),#527);
#532=(LENGTH_UNIT()NAMED_UNIT(*)SI_UNIT(.CENTI.,.METRE.));
#533=DERIVED_UNIT_ELEMENT(#532,3.E0);
#534=DERIVED_UNIT((#533));
#535=MEASURE_REPRESENTATION_ITEM('volume measure',VOLUME_MEASURE(
2.403676314151E0),#534);
#539=CARTESIAN_POINT('centre point',(1.952402621556E0,1.924135857919E-2,
1.561744775421E-8));
#1=DRAUGHTING_PRE_DEFINED_COLOUR('green');
#2=COLOUR_RGB('',1.1E-2,1.2E-2,1.E0);
#3=COLOUR_RGB('',1.1E-1,1.1E-1,1.1E-1);
#4=COLOUR_RGB('',3.92E-1,1.2E-2,1.2E-2);
#5=COLOUR_RGB('',4.1E-1,0.E0,2.2E-1);
#6=COLOUR_RGB('',6.666666666667E-1,4.627450980392E-1,2.196078431373E-1);
#7=COLOUR_RGB('',8.784E-1,9.49E-1,1.E0);
#8=COLOUR_RGB('',9.6E-1,9.6E-1,9.6E-1);
#9=COLOUR_RGB('',9.8E-1,6.27E-1,0.E0);
#10=DRAUGHTING_PRE_DEFINED_COLOUR('red');
#11=DRAUGHTING_PRE_DEFINED_COLOUR('magenta');
#12=DRAUGHTING_PRE_DEFINED_COLOUR('yellow');
#13=COLOUR_RGB('',1.E0,1.E0,9.49E-1);
#14=DRAUGHTING_PRE_DEFINED_COLOUR('white');
#20=CIRCLE('',#19,1.E0);
#29=CIRCLE('',#28,1.E0);
#37=CIRCLE('',#36,1.E0);
#59=CIRCLE('',#58,1.E0);
#95=CIRCLE('',#94,1.E0);
#103=CIRCLE('',#102,1.E0);
#118=CIRCLE('',#117,1.E0);
#147=CIRCLE('',#146,1.E0);
#155=CIRCLE('',#154,9.E-1);
#177=CIRCLE('',#176,9.E-1);
#185=CIRCLE('',#184,9.E-1);
#193=CIRCLE('',#192,9.E-1);
#201=CIRCLE('',#200,9.E-1);
#209=CIRCLE('',#208,9.E-1);
#268=EDGE_CURVE('',#229,#230,#20,.T.);
#270=EDGE_CURVE('',#229,#238,#29,.T.);
#272=EDGE_CURVE('',#230,#238,#103,.T.);
#276=ADVANCED_FACE('',(#275),#267,.T.);
#283=EDGE_CURVE('',#230,#238,#59,.T.);
#288=ADVANCED_FACE('',(#287),#281,.T.);
#294=EDGE_CURVE('',#260,#255,#37,.T.);
#296=EDGE_CURVE('',#262,#260,#44,.T.);
#298=EDGE_CURVE('',#262,#240,#118,.T.);
#300=EDGE_CURVE('',#238,#240,#51,.T.);
#303=EDGE_CURVE('',#230,#255,#66,.T.);
#307=ADVANCED_FACE('',(#306),#293,.T.);
#313=EDGE_CURVE('',#255,#256,#95,.T.);
#315=EDGE_CURVE('',#256,#251,#73,.T.);
#317=EDGE_CURVE('',#251,#252,#80,.T.);
#319=EDGE_CURVE('',#252,#260,#87,.T.);
#324=ADVANCED_FACE('',(#323),#312,.F.);
#334=EDGE_CURVE('',#258,#240,#147,.T.);
#336=EDGE_CURVE('',#258,#256,#110,.T.);
#340=ADVANCED_FACE('',(#339),#329,.T.);
#347=EDGE_CURVE('',#248,#262,#125,.T.);
#349=EDGE_CURVE('',#247,#248,#132,.T.);
#351=EDGE_CURVE('',#258,#247,#139,.T.);
#356=EDGE_CURVE('',#233,#243,#155,.T.);
#358=EDGE_CURVE('',#233,#243,#177,.T.);
#362=ADVANCED_FACE('',(#355,#361),#345,.F.);
#368=EDGE_CURVE('',#233,#234,#162,.T.);
#371=EDGE_CURVE('',#243,#244,#169,.T.);
#373=EDGE_CURVE('',#234,#244,#209,.T.);
#377=ADVANCED_FACE('',(#376),#367,.F.);
#384=EDGE_CURVE('',#234,#244,#201,.T.);
#390=ADVANCED_FACE('',(#389),#382,.F.);
#396=EDGE_CURVE('',#234,#236,#185,.T.);
#398=EDGE_CURVE('',#244,#236,#193,.T.);
#403=ADVANCED_FACE('',(#402),#395,.F.);
#414=ADVANCED_FACE('',(#413),#408,.F.);
#422=EDGE_CURVE('',#248,#252,#216,.T.);
#427=ADVANCED_FACE('',(#426),#419,.T.);
#436=EDGE_CURVE('',#247,#251,#223,.T.);
#440=ADVANCED_FACE('',(#439),#432,.T.);
#452=ADVANCED_FACE('',(#451),#445,.T.);
#472=TRIMMED_CURVE('A_1',#471,(PARAMETER_VALUE(0.E0)),(PARAMETER_VALUE(1.E0)),
.T.,.UNSPECIFIED.);
#494=(GEOMETRIC_REPRESENTATION_CONTEXT(3)GLOBAL_UNCERTAINTY_ASSIGNED_CONTEXT((
#493))GLOBAL_UNIT_ASSIGNED_CONTEXT((#487,#491,#492))REPRESENTATION_CONTEXT
('ID1','external'));
#498=AXIS2_PLACEMENT_3D('',#495,#496,#497);
#499=ADVANCED_BREP_SHAPE_REPRESENTATION('',(#498,#454),#494);
#503=AXIS2_PLACEMENT_3D('',#500,#501,#502);
#504=GEOMETRICALLY_BOUNDED_SURFACE_SHAPE_REPRESENTATION('',(#503,#476),#494);
#508=AXIS2_PLACEMENT_3D('',#505,#506,#507);
#509=SHAPE_REPRESENTATION('',(#508,#464,#480),#494);
#519=PRODUCT_DEFINITION('part definition','',#518,#515);
#520=PRODUCT_DEFINITION_SHAPE('','SHAPE FOR FOOT_FRONT.',#519);
#521=SHAPE_REPRESENTATION('',(#454),#494);
#522=SHAPE_ASPECT('','solid data associated with FOOT_FRONT',#520,.F.);
#523=PROPERTY_DEFINITION('',
'shape for solid data with which properties are associated',#522);
#524=SHAPE_DEFINITION_REPRESENTATION(#523,#521);
#529=PROPERTY_DEFINITION('geometric_validation_property','area of FOOT_FRONT',
#522);
#530=REPRESENTATION('surface area',(#528),#494);
#531=PROPERTY_DEFINITION_REPRESENTATION(#529,#530);
#536=PROPERTY_DEFINITION('geometric_validation_property','volume of FOOT_FRONT',
#522);
#537=REPRESENTATION('volume',(#535),#494);
#538=PROPERTY_DEFINITION_REPRESENTATION(#536,#537);
#540=PROPERTY_DEFINITION('geometric_validation_property',
'centroid of FOOT_FRONT',#522);
#541=REPRESENTATION('centroid',(#539),#494);
#542=PROPERTY_DEFINITION_REPRESENTATION(#540,#541);
#543=SHAPE_DEFINITION_REPRESENTATION(#520,#509);
#544=PRODUCT_RELATED_PRODUCT_CATEGORY('part','',(#517));
ENDSEC;
END-ISO-10303-21;
