ISO-10303-21;
HEADER;
FILE_DESCRIPTION((''),'2;1');
FILE_NAME('FOOT_BACK','2008-09-05T',('mmeadows'),(''),
'PRO/ENGINEER BY PARAMETRIC TECHNOLOGY CORPORATION, 2008340',
'PRO/ENGINEER BY PARAMETRIC TECHNOLOGY CORPORATION, 2008340','');
FILE_SCHEMA(('AUTOMOTIVE_DESIGN { 1 0 10303 214 1 1 1 1 }'));
ENDSEC;
DATA;
#15=CARTESIAN_POINT('',(0.E0,0.E0,0.E0));
#16=DIRECTION('',(1.E0,0.E0,0.E0));
#17=DIRECTION('',(0.E0,1.E0,0.E0));
#18=AXIS2_PLACEMENT_3D('',#15,#16,#17);
#20=DRAUGHTING_PRE_DEFINED_CURVE_FONT('continuous');
#21=CURVE_STYLE('',#20,POSITIVE_LENGTH_MEASURE(2.E-2),#2);
#22=PRESENTATION_STYLE_ASSIGNMENT((#21));
#23=STYLED_ITEM('',(#22),#19);
#24=DIRECTION('',(-1.E0,0.E0,0.E0));
#25=VECTOR('',#24,3.E0);
#26=CARTESIAN_POINT('',(0.E0,1.E0,0.E0));
#27=LINE('',#26,#25);
#28=CURVE_STYLE('',#20,POSITIVE_LENGTH_MEASURE(2.E-2),#2);
#29=PRESENTATION_STYLE_ASSIGNMENT((#28));
#30=STYLED_ITEM('',(#29),#27);
#31=DIRECTION('',(-1.E0,0.E0,0.E0));
#32=VECTOR('',#31,3.E0);
#33=CARTESIAN_POINT('',(0.E0,-1.E0,0.E0));
#34=LINE('',#33,#32);
#35=CURVE_STYLE('',#20,POSITIVE_LENGTH_MEASURE(2.E-2),#2);
#36=PRESENTATION_STYLE_ASSIGNMENT((#35));
#37=STYLED_ITEM('',(#36),#34);
#38=CARTESIAN_POINT('',(0.E0,0.E0,0.E0));
#39=DIRECTION('',(-1.E0,0.E0,0.E0));
#40=DIRECTION('',(0.E0,1.E0,0.E0));
#41=AXIS2_PLACEMENT_3D('',#38,#39,#40);
#43=CURVE_STYLE('',#20,POSITIVE_LENGTH_MEASURE(2.E-2),#2);
#44=PRESENTATION_STYLE_ASSIGNMENT((#43));
#45=STYLED_ITEM('',(#44),#42);
#46=CARTESIAN_POINT('',(-3.E0,0.E0,0.E0));
#47=DIRECTION('',(0.E0,0.E0,1.E0));
#48=DIRECTION('',(0.E0,1.E0,0.E0));
#49=AXIS2_PLACEMENT_3D('',#46,#47,#48);
#51=CURVE_STYLE('',#20,POSITIVE_LENGTH_MEASURE(2.E-2),#2);
#52=PRESENTATION_STYLE_ASSIGNMENT((#51));
#53=STYLED_ITEM('',(#52),#50);
#54=CARTESIAN_POINT('',(-3.E0,0.E0,0.E0));
#55=DIRECTION('',(0.E0,0.E0,-1.E0));
#56=DIRECTION('',(0.E0,-1.E0,0.E0));
#57=AXIS2_PLACEMENT_3D('',#54,#55,#56);
#59=CURVE_STYLE('',#20,POSITIVE_LENGTH_MEASURE(2.E-2),#2);
#60=PRESENTATION_STYLE_ASSIGNMENT((#59));
#61=STYLED_ITEM('',(#60),#58);
#62=CARTESIAN_POINT('',(-3.E0,0.E0,0.E0));
#63=DIRECTION('',(-1.E0,0.E0,0.E0));
#64=DIRECTION('',(0.E0,1.E0,0.E0));
#65=AXIS2_PLACEMENT_3D('',#62,#63,#64);
#67=CURVE_STYLE('',#20,POSITIVE_LENGTH_MEASURE(2.E-2),#2);
#68=PRESENTATION_STYLE_ASSIGNMENT((#67));
#69=STYLED_ITEM('',(#68),#66);
#70=CARTESIAN_POINT('',(-3.E0,0.E0,0.E0));
#71=DIRECTION('',(1.E0,0.E0,0.E0));
#72=DIRECTION('',(0.E0,1.E0,0.E0));
#73=AXIS2_PLACEMENT_3D('',#70,#71,#72);
#75=CURVE_STYLE('',#20,POSITIVE_LENGTH_MEASURE(2.E-2),#2);
#76=PRESENTATION_STYLE_ASSIGNMENT((#75));
#77=STYLED_ITEM('',(#76),#74);
#78=CARTESIAN_POINT('',(0.E0,0.E0,0.E0));
#79=DIRECTION('',(1.E0,0.E0,0.E0));
#80=DIRECTION('',(0.E0,1.E0,0.E0));
#81=AXIS2_PLACEMENT_3D('',#78,#79,#80);
#83=CURVE_STYLE('',#20,POSITIVE_LENGTH_MEASURE(2.E-2),#2);
#84=PRESENTATION_STYLE_ASSIGNMENT((#83));
#85=STYLED_ITEM('',(#84),#82);
#86=CARTESIAN_POINT('',(0.E0,0.E0,0.E0));
#87=DIRECTION('',(-1.E0,0.E0,0.E0));
#88=DIRECTION('',(0.E0,1.E0,0.E0));
#89=AXIS2_PLACEMENT_3D('',#86,#87,#88);
#91=CURVE_STYLE('',#20,POSITIVE_LENGTH_MEASURE(2.E-2),#2);
#92=PRESENTATION_STYLE_ASSIGNMENT((#91));
#93=STYLED_ITEM('',(#92),#90);
#94=CARTESIAN_POINT('',(-3.E0,0.E0,0.E0));
#95=DIRECTION('',(1.E0,0.E0,0.E0));
#96=DIRECTION('',(0.E0,1.E0,0.E0));
#97=AXIS2_PLACEMENT_3D('',#94,#95,#96);
#99=CURVE_STYLE('',#20,POSITIVE_LENGTH_MEASURE(2.E-2),#2);
#100=PRESENTATION_STYLE_ASSIGNMENT((#99));
#101=STYLED_ITEM('',(#100),#98);
#102=DIRECTION('',(1.E0,0.E0,0.E0));
#103=VECTOR('',#102,3.E0);
#104=CARTESIAN_POINT('',(-3.E0,9.E-1,0.E0));
#105=LINE('',#104,#103);
#106=CURVE_STYLE('',#20,POSITIVE_LENGTH_MEASURE(2.E-2),#2);
#107=PRESENTATION_STYLE_ASSIGNMENT((#106));
#108=STYLED_ITEM('',(#107),#105);
#109=DIRECTION('',(1.E0,0.E0,0.E0));
#110=VECTOR('',#109,3.E0);
#111=CARTESIAN_POINT('',(-3.E0,-9.E-1,0.E0));
#112=LINE('',#111,#110);
#113=CURVE_STYLE('',#20,POSITIVE_LENGTH_MEASURE(2.E-2),#2);
#114=PRESENTATION_STYLE_ASSIGNMENT((#113));
#115=STYLED_ITEM('',(#114),#112);
#116=CARTESIAN_POINT('',(-3.E0,0.E0,0.E0));
#117=DIRECTION('',(-1.E0,0.E0,0.E0));
#118=DIRECTION('',(0.E0,1.E0,0.E0));
#119=AXIS2_PLACEMENT_3D('',#116,#117,#118);
#121=CURVE_STYLE('',#20,POSITIVE_LENGTH_MEASURE(2.E-2),#2);
#122=PRESENTATION_STYLE_ASSIGNMENT((#121));
#123=STYLED_ITEM('',(#122),#120);
#124=CARTESIAN_POINT('',(-3.E0,0.E0,0.E0));
#125=DIRECTION('',(0.E0,0.E0,-1.E0));
#126=DIRECTION('',(-1.E0,0.E0,0.E0));
#127=AXIS2_PLACEMENT_3D('',#124,#125,#126);
#129=CURVE_STYLE('',#20,POSITIVE_LENGTH_MEASURE(2.E-2),#2);
#130=PRESENTATION_STYLE_ASSIGNMENT((#129));
#131=STYLED_ITEM('',(#130),#128);
#132=CARTESIAN_POINT('',(-3.E0,0.E0,0.E0));
#133=DIRECTION('',(0.E0,0.E0,1.E0));
#134=DIRECTION('',(-1.E0,0.E0,0.E0));
#135=AXIS2_PLACEMENT_3D('',#132,#133,#134);
#137=CURVE_STYLE('',#20,POSITIVE_LENGTH_MEASURE(2.E-2),#2);
#138=PRESENTATION_STYLE_ASSIGNMENT((#137));
#139=STYLED_ITEM('',(#138),#136);
#140=CARTESIAN_POINT('',(0.E0,1.E0,0.E0));
#141=CARTESIAN_POINT('',(-3.E0,1.E0,0.E0));
#142=VERTEX_POINT('',#140);
#143=VERTEX_POINT('',#141);
#144=CARTESIAN_POINT('',(-4.E0,0.E0,0.E0));
#145=VERTEX_POINT('',#144);
#146=CARTESIAN_POINT('',(-3.9E0,0.E0,0.E0));
#147=CARTESIAN_POINT('',(-3.E0,9.E-1,0.E0));
#148=VERTEX_POINT('',#146);
#149=VERTEX_POINT('',#147);
#150=CARTESIAN_POINT('',(0.E0,9.E-1,0.E0));
#151=VERTEX_POINT('',#150);
#152=CARTESIAN_POINT('',(0.E0,-1.E0,0.E0));
#153=CARTESIAN_POINT('',(-3.E0,-1.E0,0.E0));
#154=VERTEX_POINT('',#152);
#155=VERTEX_POINT('',#153);
#156=CARTESIAN_POINT('',(-3.E0,-9.E-1,0.E0));
#157=VERTEX_POINT('',#156);
#158=CARTESIAN_POINT('',(0.E0,-9.E-1,0.E0));
#159=VERTEX_POINT('',#158);
#160=CARTESIAN_POINT('',(-4.2E0,0.E0,0.E0));
#161=DIRECTION('',(1.E0,0.E0,0.E0));
#162=DIRECTION('',(0.E0,-1.E0,0.E0));
#163=AXIS2_PLACEMENT_3D('',#160,#161,#162);
#164=CYLINDRICAL_SURFACE('',#163,1.E0);
#166=ORIENTED_EDGE('',*,*,#165,.F.);
#168=ORIENTED_EDGE('',*,*,#167,.T.);
#170=ORIENTED_EDGE('',*,*,#169,.T.);
#172=ORIENTED_EDGE('',*,*,#171,.F.);
#173=EDGE_LOOP('',(#166,#168,#170,#172));
#174=FACE_OUTER_BOUND('',#173,.F.);
#176=CARTESIAN_POINT('',(-4.2E0,0.E0,0.E0));
#177=DIRECTION('',(1.E0,0.E0,0.E0));
#178=DIRECTION('',(0.E0,-1.E0,0.E0));
#179=AXIS2_PLACEMENT_3D('',#176,#177,#178);
#180=CYLINDRICAL_SURFACE('',#179,1.E0);
#181=ORIENTED_EDGE('',*,*,#165,.T.);
#183=ORIENTED_EDGE('',*,*,#182,.T.);
#184=ORIENTED_EDGE('',*,*,#169,.F.);
#186=ORIENTED_EDGE('',*,*,#185,.F.);
#187=EDGE_LOOP('',(#181,#183,#184,#186));
#188=FACE_OUTER_BOUND('',#187,.F.);
#190=CARTESIAN_POINT('',(-3.E0,0.E0,0.E0));
#191=DIRECTION('',(1.E0,0.E0,0.E0));
#192=DIRECTION('',(0.E0,-1.E0,0.E0));
#193=AXIS2_PLACEMENT_3D('',#190,#191,#192);
#194=SPHERICAL_SURFACE('',#193,1.E0);
#196=ORIENTED_EDGE('',*,*,#195,.T.);
#198=ORIENTED_EDGE('',*,*,#197,.F.);
#199=ORIENTED_EDGE('',*,*,#182,.F.);
#200=EDGE_LOOP('',(#196,#198,#199));
#201=FACE_OUTER_BOUND('',#200,.F.);
#203=CARTESIAN_POINT('',(-3.E0,0.E0,0.E0));
#204=DIRECTION('',(1.E0,0.E0,0.E0));
#205=DIRECTION('',(0.E0,-1.E0,0.E0));
#206=AXIS2_PLACEMENT_3D('',#203,#204,#205);
#207=SPHERICAL_SURFACE('',#206,1.E0);
#208=ORIENTED_EDGE('',*,*,#195,.F.);
#209=ORIENTED_EDGE('',*,*,#171,.T.);
#210=ORIENTED_EDGE('',*,*,#197,.T.);
#211=EDGE_LOOP('',(#208,#209,#210));
#212=FACE_OUTER_BOUND('',#211,.F.);
#214=CARTESIAN_POINT('',(0.E0,0.E0,0.E0));
#215=DIRECTION('',(1.E0,0.E0,0.E0));
#216=DIRECTION('',(0.E0,-1.E0,0.E0));
#217=AXIS2_PLACEMENT_3D('',#214,#215,#216);
#218=PLANE('',#217);
#219=ORIENTED_EDGE('',*,*,#185,.T.);
#220=ORIENTED_EDGE('',*,*,#167,.F.);
#221=EDGE_LOOP('',(#219,#220));
#222=FACE_OUTER_BOUND('',#221,.F.);
#224=ORIENTED_EDGE('',*,*,#223,.T.);
#226=ORIENTED_EDGE('',*,*,#225,.F.);
#227=EDGE_LOOP('',(#224,#226));
#228=FACE_BOUND('',#227,.F.);
#230=CARTESIAN_POINT('',(-4.2E0,0.E0,0.E0));
#231=DIRECTION('',(1.E0,0.E0,0.E0));
#232=DIRECTION('',(0.E0,-1.E0,0.E0));
#233=AXIS2_PLACEMENT_3D('',#230,#231,#232);
#234=CYLINDRICAL_SURFACE('',#233,9.E-1);
#236=ORIENTED_EDGE('',*,*,#235,.F.);
#238=ORIENTED_EDGE('',*,*,#237,.T.);
#240=ORIENTED_EDGE('',*,*,#239,.T.);
#241=ORIENTED_EDGE('',*,*,#223,.F.);
#242=EDGE_LOOP('',(#236,#238,#240,#241));
#243=FACE_OUTER_BOUND('',#242,.F.);
#245=CARTESIAN_POINT('',(-4.2E0,0.E0,0.E0));
#246=DIRECTION('',(1.E0,0.E0,0.E0));
#247=DIRECTION('',(0.E0,-1.E0,0.E0));
#248=AXIS2_PLACEMENT_3D('',#245,#246,#247);
#249=CYLINDRICAL_SURFACE('',#248,9.E-1);
#250=ORIENTED_EDGE('',*,*,#235,.T.);
#251=ORIENTED_EDGE('',*,*,#225,.T.);
#252=ORIENTED_EDGE('',*,*,#239,.F.);
#254=ORIENTED_EDGE('',*,*,#253,.F.);
#255=EDGE_LOOP('',(#250,#251,#252,#254));
#256=FACE_OUTER_BOUND('',#255,.F.);
#258=CARTESIAN_POINT('',(-3.E0,0.E0,0.E0));
#259=DIRECTION('',(1.E0,0.E0,0.E0));
#260=DIRECTION('',(0.E0,-1.E0,0.E0));
#261=AXIS2_PLACEMENT_3D('',#258,#259,#260);
#262=SPHERICAL_SURFACE('',#261,9.E-1);
#264=ORIENTED_EDGE('',*,*,#263,.T.);
#265=ORIENTED_EDGE('',*,*,#253,.T.);
#267=ORIENTED_EDGE('',*,*,#266,.F.);
#268=EDGE_LOOP('',(#264,#265,#267));
#269=FACE_OUTER_BOUND('',#268,.F.);
#271=CARTESIAN_POINT('',(-3.E0,0.E0,0.E0));
#272=DIRECTION('',(1.E0,0.E0,0.E0));
#273=DIRECTION('',(0.E0,-1.E0,0.E0));
#274=AXIS2_PLACEMENT_3D('',#271,#272,#273);
#275=SPHERICAL_SURFACE('',#274,9.E-1);
#276=ORIENTED_EDGE('',*,*,#263,.F.);
#277=ORIENTED_EDGE('',*,*,#266,.T.);
#278=ORIENTED_EDGE('',*,*,#237,.F.);
#279=EDGE_LOOP('',(#276,#277,#278));
#280=FACE_OUTER_BOUND('',#279,.F.);
#282=CLOSED_SHELL('',(#175,#189,#202,#213,#229,#244,#257,#270,#281));
#283=MANIFOLD_SOLID_BREP('',#282);
#284=FILL_AREA_STYLE_COLOUR('',#2);
#285=FILL_AREA_STYLE('',(#284));
#286=SURFACE_STYLE_FILL_AREA(#285);
#287=SURFACE_SIDE_STYLE('',(#286));
#288=SURFACE_STYLE_USAGE(.BOTH.,#287);
#289=PRESENTATION_STYLE_ASSIGNMENT((#288));
#14=STYLED_ITEM('',(#289),#283);
#290=CARTESIAN_POINT('',(0.E0,0.E0,0.E0));
#291=DIRECTION('',(0.E0,0.E0,1.E0));
#292=DIRECTION('',(1.E0,0.E0,0.E0));
#293=AXIS2_PLACEMENT_3D('PRT_CSYS_DEF',#290,#291,#292);
#294=CURVE_STYLE('',#20,POSITIVE_LENGTH_MEASURE(2.E-2),#6);
#295=PRESENTATION_STYLE_ASSIGNMENT((#294));
#296=STYLED_ITEM('',(#295),#293);
#297=DIRECTION('',(1.E0,0.E0,0.E0));
#298=VECTOR('',#297,4.E0);
#299=CARTESIAN_POINT('',(-4.E0,0.E0,0.E0));
#300=LINE('',#299,#298);
#302=CURVE_STYLE('',#20,POSITIVE_LENGTH_MEASURE(2.E-2),#11);
#303=PRESENTATION_STYLE_ASSIGNMENT((#302));
#304=STYLED_ITEM('',(#303),#301);
#306=PRESENTATION_LAYER_ASSIGNMENT('02___PRT_ALL_AXES_6','',(#301));
#307=PRESENTATION_LAYER_ASSIGNMENT('05___PRT_ALL_DTM_CSYS_5','',(#293));
#308=PRESENTATION_LAYER_ASSIGNMENT('05___PRT_DEF_DTM_CSYS_2','',(#293));
#309=(LENGTH_UNIT()NAMED_UNIT(*)SI_UNIT(.CENTI.,.METRE.));
#310=DIMENSIONAL_EXPONENTS(0.E0,0.E0,0.E0,0.E0,0.E0,0.E0,0.E0);
#311=(NAMED_UNIT(*)PLANE_ANGLE_UNIT()SI_UNIT($,.RADIAN.));
#312=PLANE_ANGLE_MEASURE_WITH_UNIT(PLANE_ANGLE_MEASURE(1.745329251994E-2),#311);
#313=(CONVERSION_BASED_UNIT('DEGREE',#312)NAMED_UNIT(#310)PLANE_ANGLE_UNIT());
#314=(NAMED_UNIT(*)SI_UNIT($,.STERADIAN.)SOLID_ANGLE_UNIT());
#315=UNCERTAINTY_MEASURE_WITH_UNIT(LENGTH_MEASURE(4.898783526387E-4),#309,
'distance_accuracy_value',
'Maximum model space distance between geometric entities at asserted connectivities');
#317=CARTESIAN_POINT('',(0.E0,0.E0,0.E0));
#318=DIRECTION('',(0.E0,0.E0,1.E0));
#319=DIRECTION('',(1.E0,0.E0,0.E0));
#305=GEOMETRIC_SET('',(#301));
#322=CARTESIAN_POINT('',(0.E0,0.E0,0.E0));
#323=DIRECTION('',(0.E0,0.E0,1.E0));
#324=DIRECTION('',(1.E0,0.E0,0.E0));
#327=CARTESIAN_POINT('',(0.E0,0.E0,0.E0));
#328=DIRECTION('',(0.E0,0.E0,1.E0));
#329=DIRECTION('',(1.E0,0.E0,0.E0));
#332=SHAPE_REPRESENTATION_RELATIONSHIP('','',#331,#321);
#333=SHAPE_REPRESENTATION_RELATIONSHIP('','',#331,#326);
#334=MECHANICAL_DESIGN_GEOMETRIC_PRESENTATION_REPRESENTATION('',(#23,#30,#37,
#45,#53,#61,#69,#77,#85,#93,#101,#108,#115,#123,#131,#139,#14,#296,#304),#316);
#335=APPLICATION_CONTEXT('automotive_design');
#336=APPLICATION_PROTOCOL_DEFINITION('international standard',
'automotive_design',2001,#335);
#337=PRODUCT_DEFINITION_CONTEXT('part definition',#335,'design');
#338=PRODUCT_CONTEXT('',#335,'mechanical');
#339=PRODUCT('FOOT_BACK','FOOT_BACK','NOT SPECIFIED',(#338));
#340=PRODUCT_DEFINITION_FORMATION('1','LAST_VERSION',#339);
#347=(LENGTH_UNIT()NAMED_UNIT(*)SI_UNIT(.CENTI.,.METRE.));
#348=DERIVED_UNIT_ELEMENT(#347,2.E0);
#349=DERIVED_UNIT((#348));
#350=MEASURE_REPRESENTATION_ITEM('surface area measure',AREA_MEASURE(
4.778362426102E1),#349);
#354=(LENGTH_UNIT()NAMED_UNIT(*)SI_UNIT(.CENTI.,.METRE.));
#355=DERIVED_UNIT_ELEMENT(#354,3.E0);
#356=DERIVED_UNIT((#355));
#357=MEASURE_REPRESENTATION_ITEM('volume measure',VOLUME_MEASURE(
2.358288885084E0),#356);
#361=CARTESIAN_POINT('centre point',(-1.975543960627E0,0.E0,0.E0));
#1=DRAUGHTING_PRE_DEFINED_COLOUR('green');
#2=COLOUR_RGB('',1.1E-2,1.2E-2,1.E0);
#3=COLOUR_RGB('',1.1E-1,1.1E-1,1.1E-1);
#4=COLOUR_RGB('',3.92E-1,1.2E-2,1.2E-2);
#5=COLOUR_RGB('',4.1E-1,0.E0,2.2E-1);
#6=COLOUR_RGB('',6.666666666667E-1,4.627450980392E-1,2.196078431373E-1);
#7=COLOUR_RGB('',8.784E-1,9.49E-1,1.E0);
#8=COLOUR_RGB('',9.6E-1,9.6E-1,9.6E-1);
#9=COLOUR_RGB('',9.8E-1,6.27E-1,0.E0);
#10=DRAUGHTING_PRE_DEFINED_COLOUR('red');
#11=DRAUGHTING_PRE_DEFINED_COLOUR('yellow');
#12=COLOUR_RGB('',1.E0,1.E0,9.49E-1);
#13=DRAUGHTING_PRE_DEFINED_COLOUR('white');
#19=CIRCLE('',#18,1.E0);
#42=CIRCLE('',#41,1.E0);
#50=CIRCLE('',#49,1.E0);
#58=CIRCLE('',#57,1.E0);
#66=CIRCLE('',#65,1.E0);
#74=CIRCLE('',#73,1.E0);
#82=CIRCLE('',#81,9.E-1);
#90=CIRCLE('',#89,9.E-1);
#98=CIRCLE('',#97,9.E-1);
#120=CIRCLE('',#119,9.E-1);
#128=CIRCLE('',#127,9.E-1);
#136=CIRCLE('',#135,9.E-1);
#165=EDGE_CURVE('',#142,#143,#27,.T.);
#167=EDGE_CURVE('',#142,#154,#19,.T.);
#169=EDGE_CURVE('',#154,#155,#34,.T.);
#171=EDGE_CURVE('',#143,#155,#74,.T.);
#175=ADVANCED_FACE('',(#174),#164,.T.);
#182=EDGE_CURVE('',#143,#155,#66,.T.);
#185=EDGE_CURVE('',#142,#154,#42,.T.);
#189=ADVANCED_FACE('',(#188),#180,.T.);
#195=EDGE_CURVE('',#143,#145,#50,.T.);
#197=EDGE_CURVE('',#155,#145,#58,.T.);
#202=ADVANCED_FACE('',(#201),#194,.T.);
#213=ADVANCED_FACE('',(#212),#207,.T.);
#223=EDGE_CURVE('',#151,#159,#82,.T.);
#225=EDGE_CURVE('',#151,#159,#90,.T.);
#229=ADVANCED_FACE('',(#222,#228),#218,.T.);
#235=EDGE_CURVE('',#149,#151,#105,.T.);
#237=EDGE_CURVE('',#149,#157,#98,.T.);
#239=EDGE_CURVE('',#157,#159,#112,.T.);
#244=ADVANCED_FACE('',(#243),#234,.F.);
#253=EDGE_CURVE('',#149,#157,#120,.T.);
#257=ADVANCED_FACE('',(#256),#249,.F.);
#263=EDGE_CURVE('',#148,#149,#128,.T.);
#266=EDGE_CURVE('',#148,#157,#136,.T.);
#270=ADVANCED_FACE('',(#269),#262,.F.);
#281=ADVANCED_FACE('',(#280),#275,.F.);
#301=TRIMMED_CURVE('A_1',#300,(PARAMETER_VALUE(0.E0)),(PARAMETER_VALUE(1.E0)),
.T.,.UNSPECIFIED.);
#316=(GEOMETRIC_REPRESENTATION_CONTEXT(3)GLOBAL_UNCERTAINTY_ASSIGNED_CONTEXT((
#315))GLOBAL_UNIT_ASSIGNED_CONTEXT((#309,#313,#314))REPRESENTATION_CONTEXT
('ID1','external'));
#320=AXIS2_PLACEMENT_3D('',#317,#318,#319);
#321=ADVANCED_BREP_SHAPE_REPRESENTATION('',(#320,#283),#316);
#325=AXIS2_PLACEMENT_3D('',#322,#323,#324);
#326=GEOMETRICALLY_BOUNDED_SURFACE_SHAPE_REPRESENTATION('',(#325,#305),#316);
#330=AXIS2_PLACEMENT_3D('',#327,#328,#329);
#331=SHAPE_REPRESENTATION('',(#330,#293),#316);
#341=PRODUCT_DEFINITION('part definition','',#340,#337);
#342=PRODUCT_DEFINITION_SHAPE('','SHAPE FOR FOOT_BACK.',#341);
#343=SHAPE_REPRESENTATION('',(#283),#316);
#344=SHAPE_ASPECT('','solid data associated with FOOT_BACK',#342,.F.);
#345=PROPERTY_DEFINITION('',
'shape for solid data with which properties are associated',#344);
#346=SHAPE_DEFINITION_REPRESENTATION(#345,#343);
#351=PROPERTY_DEFINITION('geometric_validation_property','area of FOOT_BACK',
#344);
#352=REPRESENTATION('surface area',(#350),#316);
#353=PROPERTY_DEFINITION_REPRESENTATION(#351,#352);
#358=PROPERTY_DEFINITION('geometric_validation_property','volume of FOOT_BACK',
#344);
#359=REPRESENTATION('volume',(#357),#316);
#360=PROPERTY_DEFINITION_REPRESENTATION(#358,#359);
#362=PROPERTY_DEFINITION('geometric_validation_property',
'centroid of FOOT_BACK',#344);
#363=REPRESENTATION('centroid',(#361),#316);
#364=PROPERTY_DEFINITION_REPRESENTATION(#362,#363);
#365=SHAPE_DEFINITION_REPRESENTATION(#342,#331);
#366=PRODUCT_RELATED_PRODUCT_CATEGORY('part','',(#339));
ENDSEC;
END-ISO-10303-21;
