ISO-10303-21;
HEADER;
FILE_DESCRIPTION(('Spaceship with externally referenced files'),'2;1');
FILE_NAME('s1-extref-tu.stp',
'2008-07-23T15:34:50+01:00',
('A P Ranger'),
('Theorem Solutions Ltd'),
'THEOREM SOLUTIONS GCO -> AP203 E2 PREPROCESSOR 10.0.053  ',
'UG',
'A P Ranger');
FILE_SCHEMA(('CONFIGURATION_CONTROL_3D_DESIGN_ED2_MIM_LF { 1 0 10303 403 1 1 4}'
));
ENDSEC;
DATA;
#1=DIMENSIONAL_EXPONENTS(1.0,0.0,0.0,0.0,0.0,0.0,0.0);
#2=DIMENSIONAL_EXPONENTS(0.0,0.0,0.0,0.0,0.0,0.0,0.0);
#3=(NAMED_UNIT(*)SI_UNIT($,.STERADIAN.)SOLID_ANGLE_UNIT());
#4=(LENGTH_UNIT()NAMED_UNIT(*)SI_UNIT(.MILLI.,.METRE.));
#5=(NAMED_UNIT(*)PLANE_ANGLE_UNIT()SI_UNIT($,.RADIAN.));
#6=APPLICATION_CONTEXT(
'configuration controlled 3D designs of mechanical parts and assemblies');
#7=APPLICATION_PROTOCOL_DEFINITION('technical specification',
'config_control_design',2004,#6);
#8=PRODUCT_CONTEXT('',#6,'mechanical');
#9=PRODUCT_DEFINITION_CONTEXT('',#6,'design');
#10=PRODUCT('MASTER','MASTER',$,(#8));
#11=PRODUCT_RELATED_PRODUCT_CATEGORY('detail','',(#10));
#12=PRODUCT_RELATED_PRODUCT_CATEGORY('part','MASTER',(#10));
#13=PRODUCT_CATEGORY_RELATIONSHIP('','MASTER',#12,#11);
#14=PRODUCT_DEFINITION_FORMATION('version 0','version 0 for MASTER',#10);
#15=PRODUCT_DEFINITION('design',$,#14,#9);
#16=CARTESIAN_POINT('#16',(17.5,-30.,-1.5));
#17=VERTEX_POINT('#17',#16);
#18=CARTESIAN_POINT('#18',(47.5,-30.,-1.5));
#19=VERTEX_POINT('#19',#18);
#20=CARTESIAN_POINT('#20',(47.5,-30.,1.5));
#21=VERTEX_POINT('#21',#20);
#22=CARTESIAN_POINT('#22',(17.5,-30.,1.5));
#23=VERTEX_POINT('#23',#22);
#24=CARTESIAN_POINT('#24',(2.5,37.5,-1.5));
#25=VERTEX_POINT('#25',#24);
#26=CARTESIAN_POINT('#26',(10.,37.5,-1.5));
#27=VERTEX_POINT('#27',#26);
#28=CARTESIAN_POINT('#28',(10.,37.5,1.5));
#29=VERTEX_POINT('#29',#28);
#30=CARTESIAN_POINT('#30',(2.5,37.5,1.5));
#31=VERTEX_POINT('#31',#30);
#32=CARTESIAN_POINT('#32',(47.5,30.,-1.5));
#33=VERTEX_POINT('#33',#32);
#34=CARTESIAN_POINT('#34',(47.5,30.,1.5));
#35=VERTEX_POINT('#35',#34);
#36=CARTESIAN_POINT('#36',(2.5,-37.5,-1.5));
#37=VERTEX_POINT('#37',#36);
#38=CARTESIAN_POINT('#38',(2.5,-45.,-1.5));
#39=VERTEX_POINT('#39',#38);
#40=CARTESIAN_POINT('#40',(2.5,-45.,1.5));
#41=VERTEX_POINT('#41',#40);
#42=CARTESIAN_POINT('#42',(2.5,-37.5,1.5));
#43=VERTEX_POINT('#43',#42);
#44=CARTESIAN_POINT('#44',(17.5,45.,-1.5));
#45=VERTEX_POINT('#45',#44);
#46=CARTESIAN_POINT('#46',(2.5,45.,-1.5));
#47=VERTEX_POINT('#47',#46);
#48=CARTESIAN_POINT('#48',(2.5,45.,1.5));
#49=VERTEX_POINT('#49',#48);
#50=CARTESIAN_POINT('#50',(17.5,45.,1.5));
#51=VERTEX_POINT('#51',#50);
#52=CARTESIAN_POINT('#52',(17.5,30.,-1.5));
#53=VERTEX_POINT('#53',#52);
#54=CARTESIAN_POINT('#54',(17.5,30.,1.5));
#55=VERTEX_POINT('#55',#54);
#56=CARTESIAN_POINT('#56',(10.,-37.5,-1.5));
#57=VERTEX_POINT('#57',#56);
#58=CARTESIAN_POINT('#58',(10.,-37.5,1.5));
#59=VERTEX_POINT('#59',#58);
#60=CARTESIAN_POINT('#60',(17.5,-45.,-1.5));
#61=VERTEX_POINT('#61',#60);
#62=CARTESIAN_POINT('#62',(17.5,-45.,1.5));
#63=VERTEX_POINT('#63',#62);
#64=CARTESIAN_POINT('#64',(0.0,-18.,0.0));
#65=VERTEX_POINT('#65',#64);
#66=CARTESIAN_POINT('#66',(0.0,18.,0.0));
#67=VERTEX_POINT('#67',#66);
#68=CARTESIAN_POINT('#68',(10.,-17.937391073,-1.500000496));
#69=VERTEX_POINT('#69',#68);
#70=CARTESIAN_POINT('#70',(10.,17.937391073,-1.500000496));
#71=VERTEX_POINT('#71',#70);
#72=CARTESIAN_POINT('#72',(10.,18.,0.0));
#73=VERTEX_POINT('#73',#72);
#74=CARTESIAN_POINT('#74',(10.,17.937391073,1.500000496));
#75=VERTEX_POINT('#75',#74);
#76=CARTESIAN_POINT('#76',(10.,-17.937391073,1.500000496));
#77=VERTEX_POINT('#77',#76);
#78=CARTESIAN_POINT('#78',(10.,-18.,0.0));
#79=VERTEX_POINT('#79',#78);
#80=CARTESIAN_POINT('#80',(17.5,-30.,-1.5));
#81=DIRECTION('#81',(1.0,0.0,0.0));
#82=VECTOR('#82',#81,30.);
#83=LINE('#83',#80,#82);
#84=CARTESIAN_POINT('#84',(47.5,-30.,-1.5));
#85=DIRECTION('#85',(0.0,0.0,1.0));
#86=VECTOR('#86',#85,3.0);
#87=LINE('#87',#84,#86);
#88=CARTESIAN_POINT('#88',(17.5,-30.,1.5));
#89=DIRECTION('#89',(1.0,0.0,0.0));
#90=VECTOR('#90',#89,30.);
#91=LINE('#91',#88,#90);
#92=CARTESIAN_POINT('#92',(17.5,-30.,-1.5));
#93=DIRECTION('#93',(0.0,0.0,1.0));
#94=VECTOR('#94',#93,3.0);
#95=LINE('#95',#92,#94);
#96=CARTESIAN_POINT('#96',(2.5,37.5,-1.5));
#97=DIRECTION('#97',(1.0,0.0,0.0));
#98=VECTOR('#98',#97,7.5);
#99=LINE('#99',#96,#98);
#100=CARTESIAN_POINT('#100',(10.,37.5,-1.5));
#101=DIRECTION('#101',(0.0,0.0,1.0));
#102=VECTOR('#102',#101,3.0);
#103=LINE('#103',#100,#102);
#104=CARTESIAN_POINT('#104',(2.5,37.5,1.5));
#105=DIRECTION('#105',(1.0,0.0,0.0));
#106=VECTOR('#106',#105,7.5);
#107=LINE('#107',#104,#106);
#108=CARTESIAN_POINT('#108',(2.5,37.5,-1.5));
#109=DIRECTION('#109',(0.0,0.0,1.0));
#110=VECTOR('#110',#109,3.0);
#111=LINE('#111',#108,#110);
#112=CARTESIAN_POINT('#112',(47.5,-30.,-1.5));
#113=DIRECTION('#113',(0.0,1.0,0.0));
#114=VECTOR('#114',#113,60.);
#115=LINE('#115',#112,#114);
#116=CARTESIAN_POINT('#116',(47.5,30.,-1.5));
#117=DIRECTION('#117',(0.0,0.0,1.0));
#118=VECTOR('#118',#117,3.0);
#119=LINE('#119',#116,#118);
#120=CARTESIAN_POINT('#120',(47.5,-30.,1.5));
#121=DIRECTION('#121',(0.0,1.0,0.0));
#122=VECTOR('#122',#121,60.);
#123=LINE('#123',#120,#122);
#124=CARTESIAN_POINT('#124',(2.5,-37.5,-1.5));
#125=DIRECTION('#125',(0.0,-1.,0.0));
#126=VECTOR('#126',#125,7.5);
#127=LINE('#127',#124,#126);
#128=CARTESIAN_POINT('#128',(2.5,-45.,-1.5));
#129=DIRECTION('#129',(0.0,0.0,1.0));
#130=VECTOR('#130',#129,3.0);
#131=LINE('#131',#128,#130);
#132=CARTESIAN_POINT('#132',(2.5,-37.5,1.5));
#133=DIRECTION('#133',(0.0,-1.,0.0));
#134=VECTOR('#134',#133,7.5);
#135=LINE('#135',#132,#134);
#136=CARTESIAN_POINT('#136',(2.5,-37.5,-1.5));
#137=DIRECTION('#137',(0.0,0.0,1.0));
#138=VECTOR('#138',#137,3.0);
#139=LINE('#139',#136,#138);
#140=CARTESIAN_POINT('#140',(17.5,45.,-1.5));
#141=DIRECTION('#141',(-1.,0.0,0.0));
#142=VECTOR('#142',#141,15.);
#143=LINE('#143',#140,#142);
#144=CARTESIAN_POINT('#144',(2.5,45.,-1.5));
#145=DIRECTION('#145',(0.0,0.0,1.0));
#146=VECTOR('#146',#145,3.0);
#147=LINE('#147',#144,#146);
#148=CARTESIAN_POINT('#148',(17.5,45.,1.5));
#149=DIRECTION('#149',(-1.,0.0,0.0));
#150=VECTOR('#150',#149,15.);
#151=LINE('#151',#148,#150);
#152=CARTESIAN_POINT('#152',(17.5,45.,-1.5));
#153=DIRECTION('#153',(0.0,0.0,1.0));
#154=VECTOR('#154',#153,3.0);
#155=LINE('#155',#152,#154);
#156=CARTESIAN_POINT('#156',(2.5,45.,-1.5));
#157=DIRECTION('#157',(0.0,-1.,0.0));
#158=VECTOR('#158',#157,7.5);
#159=LINE('#159',#156,#158);
#160=CARTESIAN_POINT('#160',(2.5,45.,1.5));
#161=DIRECTION('#161',(0.0,-1.,0.0));
#162=VECTOR('#162',#161,7.5);
#163=LINE('#163',#160,#162);
#164=CARTESIAN_POINT('#164',(17.5,30.,-1.5));
#165=DIRECTION('#165',(0.0,1.0,0.0));
#166=VECTOR('#166',#165,15.);
#167=LINE('#167',#164,#166);
#168=CARTESIAN_POINT('#168',(17.5,30.,1.5));
#169=DIRECTION('#169',(0.0,1.0,0.0));
#170=VECTOR('#170',#169,15.);
#171=LINE('#171',#168,#170);
#172=CARTESIAN_POINT('#172',(17.5,30.,-1.5));
#173=DIRECTION('#173',(0.0,0.0,1.0));
#174=VECTOR('#174',#173,3.0);
#175=LINE('#175',#172,#174);
#176=CARTESIAN_POINT('#176',(47.5,30.,-1.5));
#177=DIRECTION('#177',(-1.,0.0,0.0));
#178=VECTOR('#178',#177,30.);
#179=LINE('#179',#176,#178);
#180=CARTESIAN_POINT('#180',(47.5,30.,1.5));
#181=DIRECTION('#181',(-1.,0.0,0.0));
#182=VECTOR('#182',#181,30.);
#183=LINE('#183',#180,#182);
#184=CARTESIAN_POINT('#184',(10.,-37.5,-1.5));
#185=DIRECTION('#185',(-1.,0.0,0.0));
#186=VECTOR('#186',#185,7.5);
#187=LINE('#187',#184,#186);
#188=CARTESIAN_POINT('#188',(10.,-37.5,1.5));
#189=DIRECTION('#189',(-1.,0.0,0.0));
#190=VECTOR('#190',#189,7.5);
#191=LINE('#191',#188,#190);
#192=CARTESIAN_POINT('#192',(10.,-37.5,-1.5));
#193=DIRECTION('#193',(0.0,0.0,1.0));
#194=VECTOR('#194',#193,3.0);
#195=LINE('#195',#192,#194);
#196=CARTESIAN_POINT('#196',(2.5,-45.,-1.5));
#197=DIRECTION('#197',(1.0,0.0,0.0));
#198=VECTOR('#198',#197,15.);
#199=LINE('#199',#196,#198);
#200=CARTESIAN_POINT('#200',(17.5,-45.,-1.5));
#201=DIRECTION('#201',(0.0,0.0,1.0));
#202=VECTOR('#202',#201,3.0);
#203=LINE('#203',#200,#202);
#204=CARTESIAN_POINT('#204',(2.5,-45.,1.5));
#205=DIRECTION('#205',(1.0,0.0,0.0));
#206=VECTOR('#206',#205,15.);
#207=LINE('#207',#204,#206);
#208=CARTESIAN_POINT('#208',(0.0,0.0,0.0));
#209=DIRECTION('#209',(1.0,0.0,0.0));
#210=DIRECTION('#210',(0.0,0.0,-1.));
#211=AXIS2_PLACEMENT_3D('#211',#208,#209,#210);
#212=CIRCLE('#212',#211,18.);
#213=CARTESIAN_POINT('#213',(0.0,0.0,0.0));
#214=DIRECTION('#214',(1.0,0.0,0.0));
#215=DIRECTION('#215',(0.0,0.0,-1.));
#216=AXIS2_PLACEMENT_3D('#216',#213,#214,#215);
#217=CIRCLE('#217',#216,18.);
#218=CARTESIAN_POINT('#218',(17.5,-45.,-1.5));
#219=DIRECTION('#219',(0.0,1.0,0.0));
#220=VECTOR('#220',#219,15.);
#221=LINE('#221',#218,#220);
#222=CARTESIAN_POINT('#222',(17.5,-45.,1.5));
#223=DIRECTION('#223',(0.0,1.0,0.0));
#224=VECTOR('#224',#223,15.);
#225=LINE('#225',#222,#224);
#226=CARTESIAN_POINT('#226',(10.,-17.937391073,-1.500000496));
#227=DIRECTION('#227',(0.0,1.0,0.000000013825));
#228=VECTOR('#228',#227,35.874782146);
#229=LINE('#229',#226,#228);
#230=CARTESIAN_POINT('#230',(10.,0.0,0.0));
#231=DIRECTION('#231',(1.0,0.0,0.0));
#232=DIRECTION('#232',(0.0,0.0,-1.));
#233=AXIS2_PLACEMENT_3D('#233',#230,#231,#232);
#234=CIRCLE('#234',#233,18.);
#235=CARTESIAN_POINT('#235',(10.,0.0,0.0));
#236=DIRECTION('#236',(1.0,0.0,0.0));
#237=DIRECTION('#237',(0.0,0.0,-1.));
#238=AXIS2_PLACEMENT_3D('#238',#235,#236,#237);
#239=CIRCLE('#239',#238,18.);
#240=CARTESIAN_POINT('#240',(10.,37.5,1.5));
#241=DIRECTION('#241',(0.0,-1.,0.0));
#242=VECTOR('#242',#241,19.562608927);
#243=LINE('#243',#240,#242);
#244=CARTESIAN_POINT('#244',(10.,37.5,-1.5));
#245=DIRECTION('#245',(0.0,-1.,0.0));
#246=VECTOR('#246',#245,19.562608927);
#247=LINE('#247',#244,#246);
#248=CARTESIAN_POINT('#248',(10.,0.0,0.0));
#249=DIRECTION('#249',(1.0,0.0,0.0));
#250=DIRECTION('#250',(0.0,0.0,-1.));
#251=AXIS2_PLACEMENT_3D('#251',#248,#249,#250);
#252=CIRCLE('#252',#251,18.);
#253=CARTESIAN_POINT('#253',(10.,-17.937391073,1.500000496));
#254=DIRECTION('#254',(0.0,1.0,-0.000000013825));
#255=VECTOR('#255',#254,35.874782146);
#256=LINE('#256',#253,#255);
#257=CARTESIAN_POINT('#257',(10.,0.0,0.0));
#258=DIRECTION('#258',(1.0,0.0,0.0));
#259=DIRECTION('#259',(0.0,0.0,-1.));
#260=AXIS2_PLACEMENT_3D('#260',#257,#258,#259);
#261=CIRCLE('#261',#260,18.);
#262=CARTESIAN_POINT('#262',(0.0,-18.,0.0));
#263=DIRECTION('#263',(1.0,0.0,0.0));
#264=VECTOR('#264',#263,10.);
#265=LINE('#265',#262,#264);
#266=CARTESIAN_POINT('#266',(0.0,18.,0.0));
#267=DIRECTION('#267',(1.0,0.0,0.0));
#268=VECTOR('#268',#267,10.);
#269=LINE('#269',#266,#268);
#270=CARTESIAN_POINT('#270',(10.,0.0,0.0));
#271=DIRECTION('#271',(1.0,0.0,0.0));
#272=DIRECTION('#272',(0.0,0.0,-1.));
#273=AXIS2_PLACEMENT_3D('#273',#270,#271,#272);
#274=CIRCLE('#274',#273,18.);
#275=CARTESIAN_POINT('#275',(10.,-17.937391073,-1.500000496));
#276=DIRECTION('#276',(0.0,-1.,0.000000025354));
#277=VECTOR('#277',#276,19.562608927);
#278=LINE('#278',#275,#277);
#279=CARTESIAN_POINT('#279',(10.,0.0,0.0));
#280=DIRECTION('#280',(1.0,0.0,0.0));
#281=DIRECTION('#281',(0.0,0.0,-1.));
#282=AXIS2_PLACEMENT_3D('#282',#279,#280,#281);
#283=CIRCLE('#283',#282,18.);
#284=CARTESIAN_POINT('#284',(10.,-17.937391073,1.500000496));
#285=DIRECTION('#285',(0.0,-1.,-0.000000025354));
#286=VECTOR('#286',#285,19.562608927);
#287=LINE('#287',#284,#286);
#288=EDGE_CURVE('#288',#17,#19,#83,.T.);
#289=EDGE_CURVE('#289',#19,#21,#87,.T.);
#290=EDGE_CURVE('#290',#23,#21,#91,.T.);
#291=EDGE_CURVE('#291',#17,#23,#95,.T.);
#292=EDGE_CURVE('#292',#25,#27,#99,.T.);
#293=EDGE_CURVE('#293',#27,#29,#103,.T.);
#294=EDGE_CURVE('#294',#31,#29,#107,.T.);
#295=EDGE_CURVE('#295',#25,#31,#111,.T.);
#296=EDGE_CURVE('#296',#19,#33,#115,.T.);
#297=EDGE_CURVE('#297',#33,#35,#119,.T.);
#298=EDGE_CURVE('#298',#21,#35,#123,.T.);
#299=EDGE_CURVE('#299',#37,#39,#127,.T.);
#300=EDGE_CURVE('#300',#39,#41,#131,.T.);
#301=EDGE_CURVE('#301',#43,#41,#135,.T.);
#302=EDGE_CURVE('#302',#37,#43,#139,.T.);
#303=EDGE_CURVE('#303',#45,#47,#143,.T.);
#304=EDGE_CURVE('#304',#47,#49,#147,.T.);
#305=EDGE_CURVE('#305',#51,#49,#151,.T.);
#306=EDGE_CURVE('#306',#45,#51,#155,.T.);
#307=EDGE_CURVE('#307',#47,#25,#159,.T.);
#308=EDGE_CURVE('#308',#49,#31,#163,.T.);
#309=EDGE_CURVE('#309',#53,#45,#167,.T.);
#310=EDGE_CURVE('#310',#55,#51,#171,.T.);
#311=EDGE_CURVE('#311',#53,#55,#175,.T.);
#312=EDGE_CURVE('#312',#33,#53,#179,.T.);
#313=EDGE_CURVE('#313',#35,#55,#183,.T.);
#314=EDGE_CURVE('#314',#57,#37,#187,.T.);
#315=EDGE_CURVE('#315',#59,#43,#191,.T.);
#316=EDGE_CURVE('#316',#57,#59,#195,.T.);
#317=EDGE_CURVE('#317',#39,#61,#199,.T.);
#318=EDGE_CURVE('#318',#61,#63,#203,.T.);
#319=EDGE_CURVE('#319',#41,#63,#207,.T.);
#320=EDGE_CURVE('#320',#65,#67,#212,.T.);
#321=EDGE_CURVE('#321',#67,#65,#217,.T.);
#322=EDGE_CURVE('#322',#61,#17,#221,.T.);
#323=EDGE_CURVE('#323',#63,#23,#225,.T.);
#324=EDGE_CURVE('#324',#69,#71,#229,.T.);
#325=EDGE_CURVE('#325',#69,#71,#234,.T.);
#326=EDGE_CURVE('#326',#73,#75,#239,.T.);
#327=EDGE_CURVE('#327',#29,#75,#243,.T.);
#328=EDGE_CURVE('#328',#27,#71,#247,.T.);
#329=EDGE_CURVE('#329',#71,#73,#252,.T.);
#330=EDGE_CURVE('#330',#77,#75,#256,.T.);
#331=EDGE_CURVE('#331',#75,#77,#261,.T.);
#332=EDGE_CURVE('#332',#65,#79,#265,.T.);
#333=EDGE_CURVE('#333',#67,#73,#269,.T.);
#334=EDGE_CURVE('#334',#79,#69,#274,.T.);
#335=EDGE_CURVE('#335',#69,#57,#278,.T.);
#336=EDGE_CURVE('#336',#77,#79,#283,.T.);
#337=EDGE_CURVE('#337',#77,#59,#287,.T.);
#338=ORIENTED_EDGE('#338',*,*,#288,.T.);
#339=ORIENTED_EDGE('#339',*,*,#289,.T.);
#340=ORIENTED_EDGE('#340',*,*,#290,.F.);
#341=ORIENTED_EDGE('#341',*,*,#291,.F.);
#342=EDGE_LOOP('#342',(#338,#339,#340,#341));
#343=FACE_BOUND('#343',#342,.T.);
#344=CARTESIAN_POINT('#344',(17.5,-30.,-1.5));
#345=DIRECTION('#345',(0.0,-1.,0.0));
#346=DIRECTION('#346',(0.0,0.0,-1.));
#347=AXIS2_PLACEMENT_3D('#347',#344,#345,#346);
#348=PLANE('#348',#347);
#349=ADVANCED_FACE('#349',(#343),#348,.T.);
#350=ORIENTED_EDGE('#350',*,*,#292,.T.);
#351=ORIENTED_EDGE('#351',*,*,#293,.T.);
#352=ORIENTED_EDGE('#352',*,*,#294,.F.);
#353=ORIENTED_EDGE('#353',*,*,#295,.F.);
#354=EDGE_LOOP('#354',(#350,#351,#352,#353));
#355=FACE_BOUND('#355',#354,.T.);
#356=CARTESIAN_POINT('#356',(2.5,37.5,-1.5));
#357=DIRECTION('#357',(0.0,-1.,0.0));
#358=DIRECTION('#358',(0.0,0.0,-1.));
#359=AXIS2_PLACEMENT_3D('#359',#356,#357,#358);
#360=PLANE('#360',#359);
#361=ADVANCED_FACE('#361',(#355),#360,.T.);
#362=ORIENTED_EDGE('#362',*,*,#296,.T.);
#363=ORIENTED_EDGE('#363',*,*,#297,.T.);
#364=ORIENTED_EDGE('#364',*,*,#298,.F.);
#365=ORIENTED_EDGE('#365',*,*,#289,.F.);
#366=EDGE_LOOP('#366',(#362,#363,#364,#365));
#367=FACE_BOUND('#367',#366,.T.);
#368=CARTESIAN_POINT('#368',(47.5,-30.,-1.5));
#369=DIRECTION('#369',(1.0,0.0,0.0));
#370=DIRECTION('#370',(0.0,0.0,-1.));
#371=AXIS2_PLACEMENT_3D('#371',#368,#369,#370);
#372=PLANE('#372',#371);
#373=ADVANCED_FACE('#373',(#367),#372,.T.);
#374=ORIENTED_EDGE('#374',*,*,#299,.T.);
#375=ORIENTED_EDGE('#375',*,*,#300,.T.);
#376=ORIENTED_EDGE('#376',*,*,#301,.F.);
#377=ORIENTED_EDGE('#377',*,*,#302,.F.);
#378=EDGE_LOOP('#378',(#374,#375,#376,#377));
#379=FACE_BOUND('#379',#378,.T.);
#380=CARTESIAN_POINT('#380',(2.5,-37.5,-1.5));
#381=DIRECTION('#381',(-1.,0.0,0.0));
#382=DIRECTION('#382',(0.0,0.0,1.0));
#383=AXIS2_PLACEMENT_3D('#383',#380,#381,#382);
#384=PLANE('#384',#383);
#385=ADVANCED_FACE('#385',(#379),#384,.T.);
#386=ORIENTED_EDGE('#386',*,*,#303,.T.);
#387=ORIENTED_EDGE('#387',*,*,#304,.T.);
#388=ORIENTED_EDGE('#388',*,*,#305,.F.);
#389=ORIENTED_EDGE('#389',*,*,#306,.F.);
#390=EDGE_LOOP('#390',(#386,#387,#388,#389));
#391=FACE_BOUND('#391',#390,.T.);
#392=CARTESIAN_POINT('#392',(17.5,45.,-1.5));
#393=DIRECTION('#393',(0.0,1.0,0.0));
#394=DIRECTION('#394',(0.0,0.0,1.0));
#395=AXIS2_PLACEMENT_3D('#395',#392,#393,#394);
#396=PLANE('#396',#395);
#397=ADVANCED_FACE('#397',(#391),#396,.T.);
#398=ORIENTED_EDGE('#398',*,*,#307,.T.);
#399=ORIENTED_EDGE('#399',*,*,#295,.T.);
#400=ORIENTED_EDGE('#400',*,*,#308,.F.);
#401=ORIENTED_EDGE('#401',*,*,#304,.F.);
#402=EDGE_LOOP('#402',(#398,#399,#400,#401));
#403=FACE_BOUND('#403',#402,.T.);
#404=CARTESIAN_POINT('#404',(2.5,45.,-1.5));
#405=DIRECTION('#405',(-1.,0.0,0.0));
#406=DIRECTION('#406',(0.0,0.0,1.0));
#407=AXIS2_PLACEMENT_3D('#407',#404,#405,#406);
#408=PLANE('#408',#407);
#409=ADVANCED_FACE('#409',(#403),#408,.T.);
#410=ORIENTED_EDGE('#410',*,*,#309,.T.);
#411=ORIENTED_EDGE('#411',*,*,#306,.T.);
#412=ORIENTED_EDGE('#412',*,*,#310,.F.);
#413=ORIENTED_EDGE('#413',*,*,#311,.F.);
#414=EDGE_LOOP('#414',(#410,#411,#412,#413));
#415=FACE_BOUND('#415',#414,.T.);
#416=CARTESIAN_POINT('#416',(17.5,30.,-1.5));
#417=DIRECTION('#417',(1.0,0.0,0.0));
#418=DIRECTION('#418',(0.0,0.0,-1.));
#419=AXIS2_PLACEMENT_3D('#419',#416,#417,#418);
#420=PLANE('#420',#419);
#421=ADVANCED_FACE('#421',(#415),#420,.T.);
#422=ORIENTED_EDGE('#422',*,*,#312,.T.);
#423=ORIENTED_EDGE('#423',*,*,#311,.T.);
#424=ORIENTED_EDGE('#424',*,*,#313,.F.);
#425=ORIENTED_EDGE('#425',*,*,#297,.F.);
#426=EDGE_LOOP('#426',(#422,#423,#424,#425));
#427=FACE_BOUND('#427',#426,.T.);
#428=CARTESIAN_POINT('#428',(47.5,30.,-1.5));
#429=DIRECTION('#429',(0.0,1.0,0.0));
#430=DIRECTION('#430',(0.0,0.0,1.0));
#431=AXIS2_PLACEMENT_3D('#431',#428,#429,#430);
#432=PLANE('#432',#431);
#433=ADVANCED_FACE('#433',(#427),#432,.T.);
#434=ORIENTED_EDGE('#434',*,*,#314,.T.);
#435=ORIENTED_EDGE('#435',*,*,#302,.T.);
#436=ORIENTED_EDGE('#436',*,*,#315,.F.);
#437=ORIENTED_EDGE('#437',*,*,#316,.F.);
#438=EDGE_LOOP('#438',(#434,#435,#436,#437));
#439=FACE_BOUND('#439',#438,.T.);
#440=CARTESIAN_POINT('#440',(10.,-37.5,-1.5));
#441=DIRECTION('#441',(0.0,1.0,0.0));
#442=DIRECTION('#442',(0.0,0.0,1.0));
#443=AXIS2_PLACEMENT_3D('#443',#440,#441,#442);
#444=PLANE('#444',#443);
#445=ADVANCED_FACE('#445',(#439),#444,.T.);
#446=ORIENTED_EDGE('#446',*,*,#317,.T.);
#447=ORIENTED_EDGE('#447',*,*,#318,.T.);
#448=ORIENTED_EDGE('#448',*,*,#319,.F.);
#449=ORIENTED_EDGE('#449',*,*,#300,.F.);
#450=EDGE_LOOP('#450',(#446,#447,#448,#449));
#451=FACE_BOUND('#451',#450,.T.);
#452=CARTESIAN_POINT('#452',(2.5,-45.,-1.5));
#453=DIRECTION('#453',(0.0,-1.,0.0));
#454=DIRECTION('#454',(0.0,0.0,-1.));
#455=AXIS2_PLACEMENT_3D('#455',#452,#453,#454);
#456=PLANE('#456',#455);
#457=ADVANCED_FACE('#457',(#451),#456,.T.);
#458=ORIENTED_EDGE('#458',*,*,#320,.F.);
#459=ORIENTED_EDGE('#459',*,*,#321,.F.);
#460=EDGE_LOOP('#460',(#458,#459));
#461=FACE_BOUND('#461',#460,.T.);
#462=CARTESIAN_POINT('#462',(0.0,0.0,0.0));
#463=DIRECTION('#463',(-1.,0.0,0.0));
#464=DIRECTION('#464',(0.0,0.0,1.0));
#465=AXIS2_PLACEMENT_3D('#465',#462,#463,#464);
#466=PLANE('#466',#465);
#467=ADVANCED_FACE('#467',(#461),#466,.T.);
#468=ORIENTED_EDGE('#468',*,*,#322,.T.);
#469=ORIENTED_EDGE('#469',*,*,#291,.T.);
#470=ORIENTED_EDGE('#470',*,*,#323,.F.);
#471=ORIENTED_EDGE('#471',*,*,#318,.F.);
#472=EDGE_LOOP('#472',(#468,#469,#470,#471));
#473=FACE_BOUND('#473',#472,.T.);
#474=CARTESIAN_POINT('#474',(17.5,-45.,-1.5));
#475=DIRECTION('#475',(1.0,0.0,0.0));
#476=DIRECTION('#476',(0.0,0.0,-1.));
#477=AXIS2_PLACEMENT_3D('#477',#474,#475,#476);
#478=PLANE('#478',#477);
#479=ADVANCED_FACE('#479',(#473),#478,.T.);
#480=ORIENTED_EDGE('#480',*,*,#324,.F.);
#481=ORIENTED_EDGE('#481',*,*,#325,.T.);
#482=EDGE_LOOP('#482',(#480,#481));
#483=FACE_BOUND('#483',#482,.T.);
#484=CARTESIAN_POINT('#484',(10.,0.0,0.0));
#485=DIRECTION('#485',(1.0,0.0,0.0));
#486=DIRECTION('#486',(0.0,0.0,-1.));
#487=AXIS2_PLACEMENT_3D('#487',#484,#485,#486);
#488=PLANE('#488',#487);
#489=ADVANCED_FACE('#489',(#483),#488,.T.);
#490=ORIENTED_EDGE('#490',*,*,#326,.T.);
#491=ORIENTED_EDGE('#491',*,*,#327,.F.);
#492=ORIENTED_EDGE('#492',*,*,#293,.F.);
#493=ORIENTED_EDGE('#493',*,*,#328,.T.);
#494=ORIENTED_EDGE('#494',*,*,#329,.T.);
#495=EDGE_LOOP('#495',(#490,#491,#492,#493,#494));
#496=FACE_BOUND('#496',#495,.T.);
#497=CARTESIAN_POINT('#497',(10.,37.5,-1.5));
#498=DIRECTION('#498',(-1.,0.0,0.0));
#499=DIRECTION('#499',(0.0,0.0,1.0));
#500=AXIS2_PLACEMENT_3D('#500',#497,#498,#499);
#501=PLANE('#501',#500);
#502=ADVANCED_FACE('#502',(#496),#501,.T.);
#503=ORIENTED_EDGE('#503',*,*,#330,.T.);
#504=ORIENTED_EDGE('#504',*,*,#331,.T.);
#505=EDGE_LOOP('#505',(#503,#504));
#506=FACE_BOUND('#506',#505,.T.);
#507=CARTESIAN_POINT('#507',(10.,0.0,0.0));
#508=DIRECTION('#508',(1.0,0.0,0.0));
#509=DIRECTION('#509',(0.0,0.0,-1.));
#510=AXIS2_PLACEMENT_3D('#510',#507,#508,#509);
#511=PLANE('#511',#510);
#512=ADVANCED_FACE('#512',(#506),#511,.T.);
#513=ORIENTED_EDGE('#513',*,*,#332,.F.);
#514=ORIENTED_EDGE('#514',*,*,#320,.T.);
#515=ORIENTED_EDGE('#515',*,*,#333,.T.);
#516=ORIENTED_EDGE('#516',*,*,#329,.F.);
#517=ORIENTED_EDGE('#517',*,*,#325,.F.);
#518=ORIENTED_EDGE('#518',*,*,#334,.F.);
#519=EDGE_LOOP('#519',(#513,#514,#515,#516,#517,#518));
#520=FACE_BOUND('#520',#519,.T.);
#521=CARTESIAN_POINT('#521',(10.,-18.,0.0));
#522=CARTESIAN_POINT('#522',(10.,-18.,-10.546997433));
#523=CARTESIAN_POINT('#523',(10.,-10.541314004,-18.));
#524=CARTESIAN_POINT('#524',(10.,0.0,-18.));
#525=CARTESIAN_POINT('#525',(10.,10.541314004,-18.));
#526=CARTESIAN_POINT('#526',(10.,18.,-10.546997433));
#527=CARTESIAN_POINT('#527',(10.,18.,0.0));
#528=CARTESIAN_POINT('#528',(0.0,-18.,0.0));
#529=CARTESIAN_POINT('#529',(0.0,-18.,-10.546997433));
#530=CARTESIAN_POINT('#530',(0.0,-10.541314004,-18.));
#531=CARTESIAN_POINT('#531',(0.0,0.0,-18.));
#532=CARTESIAN_POINT('#532',(0.0,10.541314004,-18.));
#533=CARTESIAN_POINT('#533',(0.0,18.,-10.546997433));
#534=CARTESIAN_POINT('#534',(0.0,18.,0.0));
#535=(BOUNDED_SURFACE()B_SPLINE_SURFACE(1,3,((#521,#522,#523,#524,#525,#526,#527
),(#528,#529,#530,#531,#532,#533,#534)),.UNSPECIFIED.,.F.,.F.,.F.)
B_SPLINE_SURFACE_WITH_KNOTS((2,2),(4,3,4),(0.000998003992,0.999001996008),(
0.001108258348,0.5,0.998891741652),.UNSPECIFIED.)GEOMETRIC_REPRESENTATION_ITEM()
RATIONAL_B_SPLINE_SURFACE(((0.998699555713,0.803997755321,0.804431236749,1.0,
0.804431236749,0.803997755321,0.998699555713),(0.998699555713,0.803997755321,
0.804431236749,1.0,0.804431236749,0.803997755321,0.998699555713)))
REPRESENTATION_ITEM('#535')SURFACE());
#536=ADVANCED_FACE('#536',(#520),#535,.T.);
#537=ORIENTED_EDGE('#537',*,*,#328,.F.);
#538=ORIENTED_EDGE('#538',*,*,#292,.F.);
#539=ORIENTED_EDGE('#539',*,*,#307,.F.);
#540=ORIENTED_EDGE('#540',*,*,#303,.F.);
#541=ORIENTED_EDGE('#541',*,*,#309,.F.);
#542=ORIENTED_EDGE('#542',*,*,#312,.F.);
#543=ORIENTED_EDGE('#543',*,*,#296,.F.);
#544=ORIENTED_EDGE('#544',*,*,#288,.F.);
#545=ORIENTED_EDGE('#545',*,*,#322,.F.);
#546=ORIENTED_EDGE('#546',*,*,#317,.F.);
#547=ORIENTED_EDGE('#547',*,*,#299,.F.);
#548=ORIENTED_EDGE('#548',*,*,#314,.F.);
#549=ORIENTED_EDGE('#549',*,*,#335,.F.);
#550=ORIENTED_EDGE('#550',*,*,#324,.T.);
#551=EDGE_LOOP('#551',(#537,#538,#539,#540,#541,#542,#543,#544,#545,#546,#547,
#548,#549,#550));
#552=FACE_BOUND('#552',#551,.T.);
#553=CARTESIAN_POINT('#553',(17.5,-45.,-1.5));
#554=DIRECTION('#554',(0.0,0.0,-1.));
#555=DIRECTION('#555',(-1.,0.0,0.0));
#556=AXIS2_PLACEMENT_3D('#556',#553,#554,#555);
#557=PLANE('#557',#556);
#558=ADVANCED_FACE('#558',(#552),#557,.T.);
#559=ORIENTED_EDGE('#559',*,*,#336,.T.);
#560=ORIENTED_EDGE('#560',*,*,#334,.T.);
#561=ORIENTED_EDGE('#561',*,*,#335,.T.);
#562=ORIENTED_EDGE('#562',*,*,#316,.T.);
#563=ORIENTED_EDGE('#563',*,*,#337,.F.);
#564=EDGE_LOOP('#564',(#559,#560,#561,#562,#563));
#565=FACE_BOUND('#565',#564,.T.);
#566=CARTESIAN_POINT('#566',(10.,37.5,-1.5));
#567=DIRECTION('#567',(-1.,0.0,0.0));
#568=DIRECTION('#568',(0.0,0.0,1.0));
#569=AXIS2_PLACEMENT_3D('#569',#566,#567,#568);
#570=PLANE('#570',#569);
#571=ADVANCED_FACE('#571',(#565),#570,.T.);
#572=ORIENTED_EDGE('#572',*,*,#333,.F.);
#573=ORIENTED_EDGE('#573',*,*,#321,.T.);
#574=ORIENTED_EDGE('#574',*,*,#332,.T.);
#575=ORIENTED_EDGE('#575',*,*,#336,.F.);
#576=ORIENTED_EDGE('#576',*,*,#331,.F.);
#577=ORIENTED_EDGE('#577',*,*,#326,.F.);
#578=EDGE_LOOP('#578',(#572,#573,#574,#575,#576,#577));
#579=FACE_BOUND('#579',#578,.T.);
#580=CARTESIAN_POINT('#580',(10.,18.,0.0));
#581=CARTESIAN_POINT('#581',(10.,18.,10.546997433));
#582=CARTESIAN_POINT('#582',(10.,10.541314004,18.));
#583=CARTESIAN_POINT('#583',(10.,0.0,18.));
#584=CARTESIAN_POINT('#584',(10.,-10.541314004,18.));
#585=CARTESIAN_POINT('#585',(10.,-18.,10.546997433));
#586=CARTESIAN_POINT('#586',(10.,-18.,0.0));
#587=CARTESIAN_POINT('#587',(0.0,18.,0.0));
#588=CARTESIAN_POINT('#588',(0.0,18.,10.546997433));
#589=CARTESIAN_POINT('#589',(0.0,10.541314004,18.));
#590=CARTESIAN_POINT('#590',(0.0,0.0,18.));
#591=CARTESIAN_POINT('#591',(0.0,-10.541314004,18.));
#592=CARTESIAN_POINT('#592',(0.0,-18.,10.546997433));
#593=CARTESIAN_POINT('#593',(0.0,-18.,0.0));
#594=(BOUNDED_SURFACE()B_SPLINE_SURFACE(1,3,((#580,#581,#582,#583,#584,#585,#586
),(#587,#588,#589,#590,#591,#592,#593)),.UNSPECIFIED.,.F.,.F.,.F.)
B_SPLINE_SURFACE_WITH_KNOTS((2,2),(4,3,4),(0.000998003992,0.999001996008),(
0.001108258348,0.5,0.998891741652),.UNSPECIFIED.)GEOMETRIC_REPRESENTATION_ITEM()
RATIONAL_B_SPLINE_SURFACE(((0.998699555713,0.803997755321,0.804431236749,1.0,
0.804431236749,0.803997755321,0.998699555713),(0.998699555713,0.803997755321,
0.804431236749,1.0,0.804431236749,0.803997755321,0.998699555713)))
REPRESENTATION_ITEM('#594')SURFACE());
#595=ADVANCED_FACE('#595',(#579),#594,.T.);
#596=ORIENTED_EDGE('#596',*,*,#330,.F.);
#597=ORIENTED_EDGE('#597',*,*,#337,.T.);
#598=ORIENTED_EDGE('#598',*,*,#315,.T.);
#599=ORIENTED_EDGE('#599',*,*,#301,.T.);
#600=ORIENTED_EDGE('#600',*,*,#319,.T.);
#601=ORIENTED_EDGE('#601',*,*,#323,.T.);
#602=ORIENTED_EDGE('#602',*,*,#290,.T.);
#603=ORIENTED_EDGE('#603',*,*,#298,.T.);
#604=ORIENTED_EDGE('#604',*,*,#313,.T.);
#605=ORIENTED_EDGE('#605',*,*,#310,.T.);
#606=ORIENTED_EDGE('#606',*,*,#305,.T.);
#607=ORIENTED_EDGE('#607',*,*,#308,.T.);
#608=ORIENTED_EDGE('#608',*,*,#294,.T.);
#609=ORIENTED_EDGE('#609',*,*,#327,.T.);
#610=EDGE_LOOP('#610',(#596,#597,#598,#599,#600,#601,#602,#603,#604,#605,#606,
#607,#608,#609));
#611=FACE_BOUND('#611',#610,.T.);
#612=CARTESIAN_POINT('#612',(17.5,-45.,1.5));
#613=DIRECTION('#613',(0.0,0.0,1.0));
#614=DIRECTION('#614',(1.0,0.0,0.0));
#615=AXIS2_PLACEMENT_3D('#615',#612,#613,#614);
#616=PLANE('#616',#615);
#617=ADVANCED_FACE('#617',(#611),#616,.T.);
#618=CLOSED_SHELL('#618',(#349,#361,#373,#385,#397,#409,#421,#433,#445,#457,#467
,#479,#489,#502,#512,#536,#558,#571,#595,#617));
#619=MANIFOLD_SOLID_BREP('#619',#618);
#620=UNCERTAINTY_MEASURE_WITH_UNIT(LENGTH_MEASURE(0.000000520785),#4,
'distance_accuracy_value','EDGE CURVE AND VERTEX POINT ACCURACY');
#621=(GEOMETRIC_REPRESENTATION_CONTEXT(3)GLOBAL_UNCERTAINTY_ASSIGNED_CONTEXT((
#620))GLOBAL_UNIT_ASSIGNED_CONTEXT((#4,#5,#3))REPRESENTATION_CONTEXT('MASTER',
'3D'));
#622=CARTESIAN_POINT('#622',(0.0,0.0,0.0));
#623=DIRECTION('#623',(1.0,0.0,0.0));
#624=DIRECTION('#624',(0.0,0.0,1.0));
#625=AXIS2_PLACEMENT_3D('#625',#622,#624,#623);
#626=ADVANCED_BREP_SHAPE_REPRESENTATION('#626',(#619,#625),#621);
#627=DERIVED_UNIT_ELEMENT(#4,3.0);
#628=DERIVED_UNIT((#627));
#629=NAME_ATTRIBUTE('CUBIC MILLIMETRE',#628);
#630=DERIVED_UNIT_ELEMENT(#4,2.0);
#631=DERIVED_UNIT((#630));
#632=NAME_ATTRIBUTE('SQUARE MILLIMETRE',#631);
#634=SHAPE_ASPECT('#634','solid #619',#633,.F.);
#635=MEASURE_REPRESENTATION_ITEM('volume measure',
VOLUME_MEASURE(17941.030304775),#628);
#636=REPRESENTATION('volume',(#635),#621);
#637=PROPERTY_DEFINITION('geometric validation property','volume of #619',#634);
#638=PROPERTY_DEFINITION_REPRESENTATION(#637,#636);
#639=MEASURE_REPRESENTATION_ITEM('surface area measure',
AREA_MEASURE(8980.937282218),#631);
#640=REPRESENTATION('surface area',(#639),#621);
#641=PROPERTY_DEFINITION('geometric validation property','area of #619',#634);
#642=PROPERTY_DEFINITION_REPRESENTATION(#641,#640);
#643=CARTESIAN_POINT('centre point',(14.288181642,0.0,0.0));
#644=REPRESENTATION('centroid',(#643),#621);
#645=PROPERTY_DEFINITION('geometric validation property','centroid of #619',#634
);
#646=PROPERTY_DEFINITION_REPRESENTATION(#645,#644);
#647=SHAPE_REPRESENTATION('',(#619),#621);
#648=PROPERTY_DEFINITION('','Shape for Validation Properties',#634);
#649=SHAPE_DEFINITION_REPRESENTATION(#648,#647);
#650=MEASURE_REPRESENTATION_ITEM('volume measure',
VOLUME_MEASURE(17941.030304775),#628);
#651=REPRESENTATION('volume',(#650),#621);
#652=PROPERTY_DEFINITION('geometric validation property',
'volume of shape rep #626 - MASTER',#633);
#653=PROPERTY_DEFINITION_REPRESENTATION(#652,#651);
#654=MEASURE_REPRESENTATION_ITEM('surface area measure',
AREA_MEASURE(8980.937282218),#631);
#655=REPRESENTATION('surface area',(#654),#621);
#656=PROPERTY_DEFINITION('geometric validation property',
'area of shape rep #626 - MASTER',#633);
#657=PROPERTY_DEFINITION_REPRESENTATION(#656,#655);
#658=CARTESIAN_POINT('centre point',(14.288181642,0.0,0.0));
#659=REPRESENTATION('centroid',(#658),#621);
#660=PROPERTY_DEFINITION('geometric validation property',
'centroid of shape rep #626 - MASTER',#633);
#661=PROPERTY_DEFINITION_REPRESENTATION(#660,#659);
#633=PRODUCT_DEFINITION_SHAPE('',$,#15);
#662=SHAPE_DEFINITION_REPRESENTATION(#633,#626);
#663=PRESENTATION_LAYER_ASSIGNMENT('070','layer 070',(#619));
#664=COLOUR_RGB('',0.0,0.8,1.0);
#665=FILL_AREA_STYLE_COLOUR('',#664);
#666=FILL_AREA_STYLE('',(#665));
#667=SURFACE_STYLE_FILL_AREA(#666);
#668=SURFACE_SIDE_STYLE('',(#667));
#669=SURFACE_STYLE_USAGE(.BOTH.,#668);
#670=PRESENTATION_STYLE_ASSIGNMENT((#669));
#671=STYLED_ITEM('',(#670),#619);
#672=(GEOMETRIC_REPRESENTATION_CONTEXT(3)GLOBAL_UNIT_ASSIGNED_CONTEXT((#4,#5,#3)
)REPRESENTATION_CONTEXT('Presentation Context','3D'));
#673=CARTESIAN_POINT('#673',(0.0,0.0,0.0));
#674=DIRECTION('#674',(1.0,0.0,0.0));
#675=DIRECTION('#675',(0.0,0.0,1.0));
#676=AXIS2_PLACEMENT_3D('#676',#673,#675,#674);
#677=REPRESENTATION_MAP(#625,#626);
#678=MAPPED_ITEM('#678',#677,#676);
#679=DRAUGHTING_MODEL('#679',(#671,#676,#678),#672);
ENDSEC;
END-ISO-10303-21;
