ISO-10303-21;
HEADER;
FILE_DESCRIPTION(('Spaceship with externally referenced files'),'2;1');
FILE_NAME('s1-extref-tu.stp',
'2008-07-23T15:34:51+01:00',
('A P Ranger'),
('Theorem Solutions Ltd'),
'THEOREM SOLUTIONS GCO -> AP203 E2 PREPROCESSOR 10.0.053  ',
'UG',
'A P Ranger');
FILE_SCHEMA(('CONFIGURATION_CONTROL_3D_DESIGN_ED2_MIM_LF { 1 0 10303 403 1 1 4}'
));
ENDSEC;
DATA;
#1=DIMENSIONAL_EXPONENTS(1.0,0.0,0.0,0.0,0.0,0.0,0.0);
#2=DIMENSIONAL_EXPONENTS(0.0,0.0,0.0,0.0,0.0,0.0,0.0);
#3=(NAMED_UNIT(*)SI_UNIT($,.STERADIAN.)SOLID_ANGLE_UNIT());
#4=(LENGTH_UNIT()NAMED_UNIT(*)SI_UNIT(.MILLI.,.METRE.));
#5=(NAMED_UNIT(*)PLANE_ANGLE_UNIT()SI_UNIT($,.RADIAN.));
#6=APPLICATION_CONTEXT(
'configuration controlled 3D designs of mechanical parts and assemblies');
#7=APPLICATION_PROTOCOL_DEFINITION('technical specification',
'config_control_design',2004,#6);
#8=PRODUCT_CONTEXT('',#6,'mechanical');
#9=PRODUCT_DEFINITION_CONTEXT('',#6,'design');
#10=PRODUCT('MASTER','MASTER',$,(#8));
#11=PRODUCT_RELATED_PRODUCT_CATEGORY('detail','',(#10));
#12=PRODUCT_RELATED_PRODUCT_CATEGORY('part','MASTER',(#10));
#13=PRODUCT_CATEGORY_RELATIONSHIP('','MASTER',#12,#11);
#14=PRODUCT_DEFINITION_FORMATION('version 0','version 0 for MASTER',#10);
#15=PRODUCT_DEFINITION('design',$,#14,#9);
#16=CARTESIAN_POINT('#16',(0.0,10.,0.0));
#17=VERTEX_POINT('#17',#16);
#18=CARTESIAN_POINT('#18',(-30.,10.,0.0));
#19=VERTEX_POINT('#19',#18);
#20=CARTESIAN_POINT('#20',(-30.,-10.,0.0));
#21=VERTEX_POINT('#21',#20);
#22=CARTESIAN_POINT('#22',(0.0,-10.,0.0));
#23=VERTEX_POINT('#23',#22);
#24=CARTESIAN_POINT('#24',(-40.,0.0,0.0));
#25=VERTEX_POINT('#25',#24);
#26=CARTESIAN_POINT('#26',(-39.,0.0,0.0));
#27=VERTEX_POINT('#27',#26);
#28=CARTESIAN_POINT('#28',(-30.,9.0,0.0));
#29=VERTEX_POINT('#29',#28);
#30=CARTESIAN_POINT('#30',(-30.,-9.,0.0));
#31=VERTEX_POINT('#31',#30);
#32=CARTESIAN_POINT('#32',(0.0,9.0,0.0));
#33=VERTEX_POINT('#33',#32);
#34=CARTESIAN_POINT('#34',(0.0,-9.,0.0));
#35=VERTEX_POINT('#35',#34);
#36=CARTESIAN_POINT('#36',(0.0,10.,0.0));
#37=DIRECTION('#37',(-1.,0.0,0.0));
#38=VECTOR('#38',#37,30.);
#39=LINE('#39',#36,#38);
#40=CARTESIAN_POINT('#40',(-30.,0.0,0.0));
#41=DIRECTION('#41',(1.0,0.0,0.0));
#42=DIRECTION('#42',(0.0,0.0,-1.));
#43=AXIS2_PLACEMENT_3D('#43',#40,#41,#42);
#44=CIRCLE('#44',#43,10.);
#45=CARTESIAN_POINT('#45',(0.0,-10.,0.0));
#46=DIRECTION('#46',(-1.,0.0,0.0));
#47=VECTOR('#47',#46,30.);
#48=LINE('#48',#45,#47);
#49=CARTESIAN_POINT('#49',(0.0,0.0,0.0));
#50=DIRECTION('#50',(1.0,0.0,0.0));
#51=DIRECTION('#51',(0.0,0.0,-1.));
#52=AXIS2_PLACEMENT_3D('#52',#49,#50,#51);
#53=CIRCLE('#53',#52,10.);
#54=CARTESIAN_POINT('#54',(-30.,0.0,0.0));
#55=DIRECTION('#55',(0.0,0.0,1.0));
#56=DIRECTION('#56',(1.0,0.0,0.0));
#57=AXIS2_PLACEMENT_3D('#57',#54,#55,#56);
#58=CIRCLE('#58',#57,10.);
#59=CARTESIAN_POINT('#59',(-30.,0.0,0.0));
#60=DIRECTION('#60',(0.0,0.0,-1.));
#61=DIRECTION('#61',(-1.,0.0,0.0));
#62=AXIS2_PLACEMENT_3D('#62',#59,#60,#61);
#63=CIRCLE('#63',#62,10.);
#64=CARTESIAN_POINT('#64',(-30.,0.0,0.0));
#65=DIRECTION('#65',(0.0,0.0,-1.));
#66=DIRECTION('#66',(-1.,0.0,0.0));
#67=AXIS2_PLACEMENT_3D('#67',#64,#65,#66);
#68=CIRCLE('#68',#67,9.0);
#69=CARTESIAN_POINT('#69',(-30.,0.0,0.0));
#70=DIRECTION('#70',(1.0,0.0,0.0));
#71=DIRECTION('#71',(0.0,0.0,-1.));
#72=AXIS2_PLACEMENT_3D('#72',#69,#70,#71);
#73=CIRCLE('#73',#72,9.0);
#74=CARTESIAN_POINT('#74',(-30.,0.0,0.0));
#75=DIRECTION('#75',(0.0,0.0,1.0));
#76=DIRECTION('#76',(1.0,0.0,0.0));
#77=AXIS2_PLACEMENT_3D('#77',#74,#75,#76);
#78=CIRCLE('#78',#77,9.0);
#79=CARTESIAN_POINT('#79',(-30.,9.0,0.0));
#80=DIRECTION('#80',(1.0,0.0,0.0));
#81=VECTOR('#81',#80,30.);
#82=LINE('#82',#79,#81);
#83=CARTESIAN_POINT('#83',(0.0,0.0,0.0));
#84=DIRECTION('#84',(1.0,0.0,0.0));
#85=DIRECTION('#85',(0.0,0.0,-1.));
#86=AXIS2_PLACEMENT_3D('#86',#83,#84,#85);
#87=CIRCLE('#87',#86,9.0);
#88=CARTESIAN_POINT('#88',(-30.,-9.,0.0));
#89=DIRECTION('#89',(1.0,0.0,0.0));
#90=VECTOR('#90',#89,30.);
#91=LINE('#91',#88,#90);
#92=CARTESIAN_POINT('#92',(0.0,0.0,0.0));
#93=DIRECTION('#93',(1.0,0.0,0.0));
#94=DIRECTION('#94',(0.0,0.0,-1.));
#95=AXIS2_PLACEMENT_3D('#95',#92,#93,#94);
#96=CIRCLE('#96',#95,10.);
#97=CARTESIAN_POINT('#97',(0.0,0.0,0.0));
#98=DIRECTION('#98',(1.0,0.0,0.0));
#99=DIRECTION('#99',(0.0,0.0,-1.));
#100=AXIS2_PLACEMENT_3D('#100',#97,#98,#99);
#101=CIRCLE('#101',#100,9.0);
#102=CARTESIAN_POINT('#102',(-30.,0.0,0.0));
#103=DIRECTION('#103',(1.0,0.0,0.0));
#104=DIRECTION('#104',(0.0,0.0,-1.));
#105=AXIS2_PLACEMENT_3D('#105',#102,#103,#104);
#106=CIRCLE('#106',#105,10.);
#107=CARTESIAN_POINT('#107',(-30.,0.0,0.0));
#108=DIRECTION('#108',(1.0,0.0,0.0));
#109=DIRECTION('#109',(0.0,0.0,-1.));
#110=AXIS2_PLACEMENT_3D('#110',#107,#108,#109);
#111=CIRCLE('#111',#110,9.0);
#112=EDGE_CURVE('#112',#17,#19,#39,.T.);
#113=EDGE_CURVE('#113',#19,#21,#44,.T.);
#114=EDGE_CURVE('#114',#23,#21,#48,.T.);
#115=EDGE_CURVE('#115',#17,#23,#53,.T.);
#116=EDGE_CURVE('#116',#19,#25,#58,.T.);
#117=EDGE_CURVE('#117',#21,#25,#63,.T.);
#118=EDGE_CURVE('#118',#27,#29,#68,.T.);
#119=EDGE_CURVE('#119',#29,#31,#73,.T.);
#120=EDGE_CURVE('#120',#27,#31,#78,.T.);
#121=EDGE_CURVE('#121',#29,#33,#82,.T.);
#122=EDGE_CURVE('#122',#33,#35,#87,.T.);
#123=EDGE_CURVE('#123',#31,#35,#91,.T.);
#124=EDGE_CURVE('#124',#23,#17,#96,.T.);
#125=EDGE_CURVE('#125',#35,#33,#101,.T.);
#126=EDGE_CURVE('#126',#21,#19,#106,.T.);
#127=EDGE_CURVE('#127',#31,#29,#111,.T.);
#128=ORIENTED_EDGE('#128',*,*,#112,.T.);
#129=ORIENTED_EDGE('#129',*,*,#113,.T.);
#130=ORIENTED_EDGE('#130',*,*,#114,.F.);
#131=ORIENTED_EDGE('#131',*,*,#115,.F.);
#132=EDGE_LOOP('#132',(#128,#129,#130,#131));
#133=FACE_BOUND('#133',#132,.T.);
#134=CARTESIAN_POINT('#134',(0.0,10.,0.0));
#135=CARTESIAN_POINT('#135',(0.0,10.,5.859443018));
#136=CARTESIAN_POINT('#136',(0.0,5.856285558,10.));
#137=CARTESIAN_POINT('#137',(0.0,0.0,10.));
#138=CARTESIAN_POINT('#138',(0.0,-5.856285558,10.));
#139=CARTESIAN_POINT('#139',(0.0,-10.,5.859443018));
#140=CARTESIAN_POINT('#140',(0.0,-10.,0.0));
#141=CARTESIAN_POINT('#141',(-30.,10.,0.0));
#142=CARTESIAN_POINT('#142',(-30.,10.,5.859443018));
#143=CARTESIAN_POINT('#143',(-30.,5.856285558,10.));
#144=CARTESIAN_POINT('#144',(-30.,0.0,10.));
#145=CARTESIAN_POINT('#145',(-30.,-5.856285558,10.));
#146=CARTESIAN_POINT('#146',(-30.,-10.,5.859443018));
#147=CARTESIAN_POINT('#147',(-30.,-10.,0.0));
#148=(BOUNDED_SURFACE()B_SPLINE_SURFACE(1,3,((#134,#135,#136,#137,#138,#139,#140
),(#141,#142,#143,#144,#145,#146,#147)),.UNSPECIFIED.,.F.,.F.,.F.)
B_SPLINE_SURFACE_WITH_KNOTS((2,2),(4,3,4),(0.000998003992,0.999001996008),(
0.001108258348,0.5,0.998891741652),.UNSPECIFIED.)GEOMETRIC_REPRESENTATION_ITEM()
RATIONAL_B_SPLINE_SURFACE(((0.998699555713,0.803997755321,0.804431236749,1.0,
0.804431236749,0.803997755321,0.998699555713),(0.998699555713,0.803997755321,
0.804431236749,1.0,0.804431236749,0.803997755321,0.998699555713)))
REPRESENTATION_ITEM('#148')SURFACE());
#149=ADVANCED_FACE('#149',(#133),#148,.T.);
#150=ORIENTED_EDGE('#150',*,*,#116,.T.);
#151=ORIENTED_EDGE('#151',*,*,#117,.F.);
#152=ORIENTED_EDGE('#152',*,*,#113,.F.);
#153=EDGE_LOOP('#153',(#150,#151,#152));
#154=FACE_BOUND('#154',#153,.T.);
#155=CARTESIAN_POINT('#155',(-30.,10.,0.0));
#156=CARTESIAN_POINT('#156',(-30.,10.,5.859443018));
#157=CARTESIAN_POINT('#157',(-30.,5.856285558,10.));
#158=CARTESIAN_POINT('#158',(-30.,0.0,10.));
#159=CARTESIAN_POINT('#159',(-30.,-5.856285558,10.));
#160=CARTESIAN_POINT('#160',(-30.,-10.,5.859443018));
#161=CARTESIAN_POINT('#161',(-30.,-10.,0.0));
#162=CARTESIAN_POINT('#162',(-35.858653719,10.,0.0));
#163=CARTESIAN_POINT('#163',(-35.858653719,10.,5.859443018));
#164=CARTESIAN_POINT('#164',(-35.858653719,5.856285558,10.));
#165=CARTESIAN_POINT('#165',(-35.858653719,0.0,10.));
#166=CARTESIAN_POINT('#166',(-35.858653719,-5.856285558,10.));
#167=CARTESIAN_POINT('#167',(-35.858653719,-10.,5.859443018));
#168=CARTESIAN_POINT('#168',(-35.858653719,-10.,0.0));
#169=CARTESIAN_POINT('#169',(-40.,5.857074989,0.0));
#170=CARTESIAN_POINT('#170',(-40.,5.857074989,3.431919715));
#171=CARTESIAN_POINT('#171',(-40.,3.430070367,5.857074989));
#172=CARTESIAN_POINT('#172',(-40.,0.0,5.857074989));
#173=CARTESIAN_POINT('#173',(-40.,-3.430070367,5.857074989));
#174=CARTESIAN_POINT('#174',(-40.,-5.857074989,3.431919715));
#175=CARTESIAN_POINT('#175',(-40.,-5.857074989,0.0));
#176=CARTESIAN_POINT('#176',(-40.,0.0,0.0));
#177=CARTESIAN_POINT('#177',(-40.,0.0,0.0));
#178=CARTESIAN_POINT('#178',(-40.,0.0,0.0));
#179=CARTESIAN_POINT('#179',(-40.,0.0,0.0));
#180=CARTESIAN_POINT('#180',(-40.,0.0,0.0));
#181=CARTESIAN_POINT('#181',(-40.,0.0,0.0));
#182=CARTESIAN_POINT('#182',(-40.,0.0,0.0));
#183=(BOUNDED_SURFACE()B_SPLINE_SURFACE(3,3,((#155,#156,#157,#158,#159,#160,#161
),(#162,#163,#164,#165,#166,#167,#168),(#169,#170,#171,#172,#173,#174,#175),(
#176,#177,#178,#179,#180,#181,#182)),.UNSPECIFIED.,.F.,.F.,.F.)
B_SPLINE_SURFACE_WITH_KNOTS((4,4),(4,3,4),(0.001109488289,1.0),(0.001108258348,
0.5,0.998891741652),.UNSPECIFIED.)GEOMETRIC_REPRESENTATION_ITEM()
RATIONAL_B_SPLINE_SURFACE(((0.998049968008,0.8034748082,0.803908007678,
0.999349566442,0.803908007678,0.8034748082,0.998049968008),(0.803321673949,
0.646709832763,0.647058511227,0.804367709341,0.647058511227,0.646709832763,
0.803321673949),(0.803538203184,0.646884148469,0.647232920917,0.804584520527,
0.647232920917,0.646884148469,0.803538203184),(0.998699555713,0.803997755321,
0.804431236749,1.0,0.804431236749,0.803997755321,0.998699555713)))
REPRESENTATION_ITEM('#183')SURFACE());
#184=ADVANCED_FACE('#184',(#154),#183,.T.);
#185=ORIENTED_EDGE('#185',*,*,#118,.T.);
#186=ORIENTED_EDGE('#186',*,*,#119,.T.);
#187=ORIENTED_EDGE('#187',*,*,#120,.F.);
#188=EDGE_LOOP('#188',(#185,#186,#187));
#189=FACE_BOUND('#189',#188,.T.);
#190=CARTESIAN_POINT('#190',(-39.,0.0,0.0));
#191=CARTESIAN_POINT('#191',(-39.,0.0,0.0));
#192=CARTESIAN_POINT('#192',(-39.,0.0,0.0));
#193=CARTESIAN_POINT('#193',(-39.,0.0,0.0));
#194=CARTESIAN_POINT('#194',(-39.,0.0,0.0));
#195=CARTESIAN_POINT('#195',(-39.,0.0,0.0));
#196=CARTESIAN_POINT('#196',(-39.,0.0,0.0));
#197=CARTESIAN_POINT('#197',(-39.,5.27136749,0.0));
#198=CARTESIAN_POINT('#198',(-39.,5.27136749,3.088727744));
#199=CARTESIAN_POINT('#199',(-39.,3.08706333,5.27136749));
#200=CARTESIAN_POINT('#200',(-39.,0.0,5.27136749));
#201=CARTESIAN_POINT('#201',(-39.,-3.08706333,5.27136749));
#202=CARTESIAN_POINT('#202',(-39.,-5.27136749,3.088727744));
#203=CARTESIAN_POINT('#203',(-39.,-5.27136749,0.0));
#204=CARTESIAN_POINT('#204',(-35.272788347,9.0,0.0));
#205=CARTESIAN_POINT('#205',(-35.272788347,9.0,5.273498716));
#206=CARTESIAN_POINT('#206',(-35.272788347,5.270657002,9.0));
#207=CARTESIAN_POINT('#207',(-35.272788347,0.0,9.0));
#208=CARTESIAN_POINT('#208',(-35.272788347,-5.270657002,9.0));
#209=CARTESIAN_POINT('#209',(-35.272788347,-9.,5.273498716));
#210=CARTESIAN_POINT('#210',(-35.272788347,-9.,0.0));
#211=CARTESIAN_POINT('#211',(-30.,9.0,0.0));
#212=CARTESIAN_POINT('#212',(-30.,9.0,5.273498716));
#213=CARTESIAN_POINT('#213',(-30.,5.270657002,9.0));
#214=CARTESIAN_POINT('#214',(-30.,0.0,9.0));
#215=CARTESIAN_POINT('#215',(-30.,-5.270657002,9.0));
#216=CARTESIAN_POINT('#216',(-30.,-9.,5.273498716));
#217=CARTESIAN_POINT('#217',(-30.,-9.,0.0));
#218=(BOUNDED_SURFACE()B_SPLINE_SURFACE(3,3,((#190,#191,#192,#193,#194,#195,#196
),(#197,#198,#199,#200,#201,#202,#203),(#204,#205,#206,#207,#208,#209,#210),(
#211,#212,#213,#214,#215,#216,#217)),.UNSPECIFIED.,.F.,.F.,.F.)
B_SPLINE_SURFACE_WITH_KNOTS((4,4),(4,3,4),(0.0,0.998890511711),(0.001108258348,
0.5,0.998891741652),.UNSPECIFIED.)GEOMETRIC_REPRESENTATION_ITEM()
RATIONAL_B_SPLINE_SURFACE(((0.998699555713,0.803997755321,0.804431236749,1.0,
0.804431236749,0.803997755321,0.998699555713),(0.803538203184,0.646884148469,
0.647232920917,0.804584520527,0.647232920917,0.646884148469,0.803538203184),(
0.803321673949,0.646709832763,0.647058511227,0.804367709341,0.647058511227,
0.646709832763,0.803321673949),(0.998049968008,0.8034748082,0.803908007678,
0.999349566442,0.803908007678,0.8034748082,0.998049968008)))REPRESENTATION_ITEM(
'#218')SURFACE());
#219=ADVANCED_FACE('#219',(#189),#218,.T.);
#220=ORIENTED_EDGE('#220',*,*,#121,.T.);
#221=ORIENTED_EDGE('#221',*,*,#122,.T.);
#222=ORIENTED_EDGE('#222',*,*,#123,.F.);
#223=ORIENTED_EDGE('#223',*,*,#119,.F.);
#224=EDGE_LOOP('#224',(#220,#221,#222,#223));
#225=FACE_BOUND('#225',#224,.T.);
#226=CARTESIAN_POINT('#226',(-30.,9.0,0.0));
#227=CARTESIAN_POINT('#227',(-30.,9.0,5.273498716));
#228=CARTESIAN_POINT('#228',(-30.,5.270657002,9.0));
#229=CARTESIAN_POINT('#229',(-30.,0.0,9.0));
#230=CARTESIAN_POINT('#230',(-30.,-5.270657002,9.0));
#231=CARTESIAN_POINT('#231',(-30.,-9.,5.273498716));
#232=CARTESIAN_POINT('#232',(-30.,-9.,0.0));
#233=CARTESIAN_POINT('#233',(0.0,9.0,0.0));
#234=CARTESIAN_POINT('#234',(0.0,9.0,5.273498716));
#235=CARTESIAN_POINT('#235',(0.0,5.270657002,9.0));
#236=CARTESIAN_POINT('#236',(0.0,0.0,9.0));
#237=CARTESIAN_POINT('#237',(0.0,-5.270657002,9.0));
#238=CARTESIAN_POINT('#238',(0.0,-9.,5.273498716));
#239=CARTESIAN_POINT('#239',(0.0,-9.,0.0));
#240=(BOUNDED_SURFACE()B_SPLINE_SURFACE(1,3,((#226,#227,#228,#229,#230,#231,#232
),(#233,#234,#235,#236,#237,#238,#239)),.UNSPECIFIED.,.F.,.F.,.F.)
B_SPLINE_SURFACE_WITH_KNOTS((2,2),(4,3,4),(0.000998003992,0.999001996008),(
0.001108258348,0.5,0.998891741652),.UNSPECIFIED.)GEOMETRIC_REPRESENTATION_ITEM()
RATIONAL_B_SPLINE_SURFACE(((0.998699555713,0.803997755321,0.804431236749,1.0,
0.804431236749,0.803997755321,0.998699555713),(0.998699555713,0.803997755321,
0.804431236749,1.0,0.804431236749,0.803997755321,0.998699555713)))
REPRESENTATION_ITEM('#240')SURFACE());
#241=ADVANCED_FACE('#241',(#225),#240,.T.);
#242=ORIENTED_EDGE('#242',*,*,#115,.T.);
#243=ORIENTED_EDGE('#243',*,*,#124,.T.);
#244=EDGE_LOOP('#244',(#242,#243));
#245=FACE_OUTER_BOUND('#245',#244,.T.);
#246=ORIENTED_EDGE('#246',*,*,#122,.F.);
#247=ORIENTED_EDGE('#247',*,*,#125,.F.);
#248=EDGE_LOOP('#248',(#246,#247));
#249=FACE_BOUND('#249',#248,.T.);
#250=CARTESIAN_POINT('#250',(0.0,0.0,0.0));
#251=DIRECTION('#251',(1.0,0.0,0.0));
#252=DIRECTION('#252',(0.0,0.0,-1.));
#253=AXIS2_PLACEMENT_3D('#253',#250,#251,#252);
#254=PLANE('#254',#253);
#255=ADVANCED_FACE('#255',(#245,#249),#254,.T.);
#256=ORIENTED_EDGE('#256',*,*,#114,.T.);
#257=ORIENTED_EDGE('#257',*,*,#126,.T.);
#258=ORIENTED_EDGE('#258',*,*,#112,.F.);
#259=ORIENTED_EDGE('#259',*,*,#124,.F.);
#260=EDGE_LOOP('#260',(#256,#257,#258,#259));
#261=FACE_BOUND('#261',#260,.T.);
#262=CARTESIAN_POINT('#262',(0.0,-10.,0.0));
#263=CARTESIAN_POINT('#263',(0.0,-10.,-5.859443018));
#264=CARTESIAN_POINT('#264',(0.0,-5.856285558,-10.));
#265=CARTESIAN_POINT('#265',(0.0,0.0,-10.));
#266=CARTESIAN_POINT('#266',(0.0,5.856285558,-10.));
#267=CARTESIAN_POINT('#267',(0.0,10.,-5.859443018));
#268=CARTESIAN_POINT('#268',(0.0,10.,0.0));
#269=CARTESIAN_POINT('#269',(-30.,-10.,0.0));
#270=CARTESIAN_POINT('#270',(-30.,-10.,-5.859443018));
#271=CARTESIAN_POINT('#271',(-30.,-5.856285558,-10.));
#272=CARTESIAN_POINT('#272',(-30.,0.0,-10.));
#273=CARTESIAN_POINT('#273',(-30.,5.856285558,-10.));
#274=CARTESIAN_POINT('#274',(-30.,10.,-5.859443018));
#275=CARTESIAN_POINT('#275',(-30.,10.,0.0));
#276=(BOUNDED_SURFACE()B_SPLINE_SURFACE(1,3,((#262,#263,#264,#265,#266,#267,#268
),(#269,#270,#271,#272,#273,#274,#275)),.UNSPECIFIED.,.F.,.F.,.F.)
B_SPLINE_SURFACE_WITH_KNOTS((2,2),(4,3,4),(0.000998003992,0.999001996008),(
0.001108258348,0.5,0.998891741652),.UNSPECIFIED.)GEOMETRIC_REPRESENTATION_ITEM()
RATIONAL_B_SPLINE_SURFACE(((0.998699555713,0.803997755321,0.804431236749,1.0,
0.804431236749,0.803997755321,0.998699555713),(0.998699555713,0.803997755321,
0.804431236749,1.0,0.804431236749,0.803997755321,0.998699555713)))
REPRESENTATION_ITEM('#276')SURFACE());
#277=ADVANCED_FACE('#277',(#261),#276,.T.);
#278=ORIENTED_EDGE('#278',*,*,#117,.T.);
#279=ORIENTED_EDGE('#279',*,*,#116,.F.);
#280=ORIENTED_EDGE('#280',*,*,#126,.F.);
#281=EDGE_LOOP('#281',(#278,#279,#280));
#282=FACE_BOUND('#282',#281,.T.);
#283=CARTESIAN_POINT('#283',(-30.,-10.,0.0));
#284=CARTESIAN_POINT('#284',(-30.,-10.,-5.859443018));
#285=CARTESIAN_POINT('#285',(-30.,-5.856285558,-10.));
#286=CARTESIAN_POINT('#286',(-30.,0.0,-10.));
#287=CARTESIAN_POINT('#287',(-30.,5.856285558,-10.));
#288=CARTESIAN_POINT('#288',(-30.,10.,-5.859443018));
#289=CARTESIAN_POINT('#289',(-30.,10.,0.0));
#290=CARTESIAN_POINT('#290',(-35.858653719,-10.,0.0));
#291=CARTESIAN_POINT('#291',(-35.858653719,-10.,-5.859443018));
#292=CARTESIAN_POINT('#292',(-35.858653719,-5.856285558,-10.));
#293=CARTESIAN_POINT('#293',(-35.858653719,0.0,-10.));
#294=CARTESIAN_POINT('#294',(-35.858653719,5.856285558,-10.));
#295=CARTESIAN_POINT('#295',(-35.858653719,10.,-5.859443018));
#296=CARTESIAN_POINT('#296',(-35.858653719,10.,0.0));
#297=CARTESIAN_POINT('#297',(-40.,-5.857074989,0.0));
#298=CARTESIAN_POINT('#298',(-40.,-5.857074989,-3.431919715));
#299=CARTESIAN_POINT('#299',(-40.,-3.430070367,-5.857074989));
#300=CARTESIAN_POINT('#300',(-40.,0.0,-5.857074989));
#301=CARTESIAN_POINT('#301',(-40.,3.430070367,-5.857074989));
#302=CARTESIAN_POINT('#302',(-40.,5.857074989,-3.431919715));
#303=CARTESIAN_POINT('#303',(-40.,5.857074989,0.0));
#304=CARTESIAN_POINT('#304',(-40.,0.0,0.0));
#305=CARTESIAN_POINT('#305',(-40.,0.0,0.0));
#306=CARTESIAN_POINT('#306',(-40.,0.0,0.0));
#307=CARTESIAN_POINT('#307',(-40.,0.0,0.0));
#308=CARTESIAN_POINT('#308',(-40.,0.0,0.0));
#309=CARTESIAN_POINT('#309',(-40.,0.0,0.0));
#310=CARTESIAN_POINT('#310',(-40.,0.0,0.0));
#311=(BOUNDED_SURFACE()B_SPLINE_SURFACE(3,3,((#283,#284,#285,#286,#287,#288,#289
),(#290,#291,#292,#293,#294,#295,#296),(#297,#298,#299,#300,#301,#302,#303),(
#304,#305,#306,#307,#308,#309,#310)),.UNSPECIFIED.,.F.,.F.,.F.)
B_SPLINE_SURFACE_WITH_KNOTS((4,4),(4,3,4),(0.001109488289,1.0),(0.001108258348,
0.5,0.998891741652),.UNSPECIFIED.)GEOMETRIC_REPRESENTATION_ITEM()
RATIONAL_B_SPLINE_SURFACE(((0.998049968008,0.8034748082,0.803908007678,
0.999349566442,0.803908007678,0.8034748082,0.998049968008),(0.803321673949,
0.646709832763,0.647058511227,0.804367709341,0.647058511227,0.646709832763,
0.803321673949),(0.803538203184,0.646884148469,0.647232920917,0.804584520527,
0.647232920917,0.646884148469,0.803538203184),(0.998699555713,0.803997755321,
0.804431236749,1.0,0.804431236749,0.803997755321,0.998699555713)))
REPRESENTATION_ITEM('#311')SURFACE());
#312=ADVANCED_FACE('#312',(#282),#311,.T.);
#313=ORIENTED_EDGE('#313',*,*,#120,.T.);
#314=ORIENTED_EDGE('#314',*,*,#127,.T.);
#315=ORIENTED_EDGE('#315',*,*,#118,.F.);
#316=EDGE_LOOP('#316',(#313,#314,#315));
#317=FACE_BOUND('#317',#316,.T.);
#318=CARTESIAN_POINT('#318',(-39.,0.0,0.0));
#319=CARTESIAN_POINT('#319',(-39.,0.0,0.0));
#320=CARTESIAN_POINT('#320',(-39.,0.0,0.0));
#321=CARTESIAN_POINT('#321',(-39.,0.0,0.0));
#322=CARTESIAN_POINT('#322',(-39.,0.0,0.0));
#323=CARTESIAN_POINT('#323',(-39.,0.0,0.0));
#324=CARTESIAN_POINT('#324',(-39.,0.0,0.0));
#325=CARTESIAN_POINT('#325',(-39.,-5.27136749,0.0));
#326=CARTESIAN_POINT('#326',(-39.,-5.27136749,-3.088727744));
#327=CARTESIAN_POINT('#327',(-39.,-3.08706333,-5.27136749));
#328=CARTESIAN_POINT('#328',(-39.,0.0,-5.27136749));
#329=CARTESIAN_POINT('#329',(-39.,3.08706333,-5.27136749));
#330=CARTESIAN_POINT('#330',(-39.,5.27136749,-3.088727744));
#331=CARTESIAN_POINT('#331',(-39.,5.27136749,0.0));
#332=CARTESIAN_POINT('#332',(-35.272788347,-9.,0.0));
#333=CARTESIAN_POINT('#333',(-35.272788347,-9.,-5.273498716));
#334=CARTESIAN_POINT('#334',(-35.272788347,-5.270657002,-9.));
#335=CARTESIAN_POINT('#335',(-35.272788347,0.0,-9.));
#336=CARTESIAN_POINT('#336',(-35.272788347,5.270657002,-9.));
#337=CARTESIAN_POINT('#337',(-35.272788347,9.0,-5.273498716));
#338=CARTESIAN_POINT('#338',(-35.272788347,9.0,0.0));
#339=CARTESIAN_POINT('#339',(-30.,-9.,0.0));
#340=CARTESIAN_POINT('#340',(-30.,-9.,-5.273498716));
#341=CARTESIAN_POINT('#341',(-30.,-5.270657002,-9.));
#342=CARTESIAN_POINT('#342',(-30.,0.0,-9.));
#343=CARTESIAN_POINT('#343',(-30.,5.270657002,-9.));
#344=CARTESIAN_POINT('#344',(-30.,9.0,-5.273498716));
#345=CARTESIAN_POINT('#345',(-30.,9.0,0.0));
#346=(BOUNDED_SURFACE()B_SPLINE_SURFACE(3,3,((#318,#319,#320,#321,#322,#323,#324
),(#325,#326,#327,#328,#329,#330,#331),(#332,#333,#334,#335,#336,#337,#338),(
#339,#340,#341,#342,#343,#344,#345)),.UNSPECIFIED.,.F.,.F.,.F.)
B_SPLINE_SURFACE_WITH_KNOTS((4,4),(4,3,4),(0.0,0.998890511711),(0.001108258348,
0.5,0.998891741652),.UNSPECIFIED.)GEOMETRIC_REPRESENTATION_ITEM()
RATIONAL_B_SPLINE_SURFACE(((0.998699555713,0.803997755321,0.804431236749,1.0,
0.804431236749,0.803997755321,0.998699555713),(0.803538203184,0.646884148469,
0.647232920917,0.804584520527,0.647232920917,0.646884148469,0.803538203184),(
0.803321673949,0.646709832763,0.647058511227,0.804367709341,0.647058511227,
0.646709832763,0.803321673949),(0.998049968008,0.8034748082,0.803908007678,
0.999349566442,0.803908007678,0.8034748082,0.998049968008)))REPRESENTATION_ITEM(
'#346')SURFACE());
#347=ADVANCED_FACE('#347',(#317),#346,.T.);
#348=ORIENTED_EDGE('#348',*,*,#123,.T.);
#349=ORIENTED_EDGE('#349',*,*,#125,.T.);
#350=ORIENTED_EDGE('#350',*,*,#121,.F.);
#351=ORIENTED_EDGE('#351',*,*,#127,.F.);
#352=EDGE_LOOP('#352',(#348,#349,#350,#351));
#353=FACE_BOUND('#353',#352,.T.);
#354=CARTESIAN_POINT('#354',(-30.,-9.,0.0));
#355=CARTESIAN_POINT('#355',(-30.,-9.,-5.273498716));
#356=CARTESIAN_POINT('#356',(-30.,-5.270657002,-9.));
#357=CARTESIAN_POINT('#357',(-30.,0.0,-9.));
#358=CARTESIAN_POINT('#358',(-30.,5.270657002,-9.));
#359=CARTESIAN_POINT('#359',(-30.,9.0,-5.273498716));
#360=CARTESIAN_POINT('#360',(-30.,9.0,0.0));
#361=CARTESIAN_POINT('#361',(0.0,-9.,0.0));
#362=CARTESIAN_POINT('#362',(0.0,-9.,-5.273498716));
#363=CARTESIAN_POINT('#363',(0.0,-5.270657002,-9.));
#364=CARTESIAN_POINT('#364',(0.0,0.0,-9.));
#365=CARTESIAN_POINT('#365',(0.0,5.270657002,-9.));
#366=CARTESIAN_POINT('#366',(0.0,9.0,-5.273498716));
#367=CARTESIAN_POINT('#367',(0.0,9.0,0.0));
#368=(BOUNDED_SURFACE()B_SPLINE_SURFACE(1,3,((#354,#355,#356,#357,#358,#359,#360
),(#361,#362,#363,#364,#365,#366,#367)),.UNSPECIFIED.,.F.,.F.,.F.)
B_SPLINE_SURFACE_WITH_KNOTS((2,2),(4,3,4),(0.000998003992,0.999001996008),(
0.001108258348,0.5,0.998891741652),.UNSPECIFIED.)GEOMETRIC_REPRESENTATION_ITEM()
RATIONAL_B_SPLINE_SURFACE(((0.998699555713,0.803997755321,0.804431236749,1.0,
0.804431236749,0.803997755321,0.998699555713),(0.998699555713,0.803997755321,
0.804431236749,1.0,0.804431236749,0.803997755321,0.998699555713)))
REPRESENTATION_ITEM('#368')SURFACE());
#369=ADVANCED_FACE('#369',(#353),#368,.T.);
#370=CLOSED_SHELL('#370',(#149,#184,#219,#241,#255,#277,#312,#347,#369));
#371=MANIFOLD_SOLID_BREP('#371',#370);
#372=UNCERTAINTY_MEASURE_WITH_UNIT(LENGTH_MEASURE(0.8216E-11),#4,
'distance_accuracy_value','EDGE CURVE AND VERTEX POINT ACCURACY');
#373=(GEOMETRIC_REPRESENTATION_CONTEXT(3)GLOBAL_UNCERTAINTY_ASSIGNED_CONTEXT((
#372))GLOBAL_UNIT_ASSIGNED_CONTEXT((#4,#5,#3))REPRESENTATION_CONTEXT('MASTER',
'3D'));
#374=CARTESIAN_POINT('#374',(0.0,0.0,0.0));
#375=DIRECTION('#375',(1.0,0.0,0.0));
#376=DIRECTION('#376',(0.0,0.0,1.0));
#377=AXIS2_PLACEMENT_3D('#377',#374,#376,#375);
#378=ADVANCED_BREP_SHAPE_REPRESENTATION('#378',(#371,#377),#373);
#379=DERIVED_UNIT_ELEMENT(#4,3.0);
#380=DERIVED_UNIT((#379));
#381=NAME_ATTRIBUTE('CUBIC MILLIMETRE',#380);
#382=DERIVED_UNIT_ELEMENT(#4,2.0);
#383=DERIVED_UNIT((#382));
#384=NAME_ATTRIBUTE('SQUARE MILLIMETRE',#383);
#386=SHAPE_ASPECT('#386','solid #371',#385,.F.);
#387=MEASURE_REPRESENTATION_ITEM('volume measure',VOLUME_MEASURE(2358.460234116)
,#380);
#388=REPRESENTATION('volume',(#387),#373);
#389=PROPERTY_DEFINITION('geometric validation property','volume of #371',#386);
#390=PROPERTY_DEFINITION_REPRESENTATION(#389,#388);
#391=MEASURE_REPRESENTATION_ITEM('surface area measure',
AREA_MEASURE(4778.164245924),#383);
#392=REPRESENTATION('surface area',(#391),#373);
#393=PROPERTY_DEFINITION('geometric validation property','area of #371',#386);
#394=PROPERTY_DEFINITION_REPRESENTATION(#393,#392);
#395=CARTESIAN_POINT('centre point',(-19.756658525,0.0,0.0));
#396=REPRESENTATION('centroid',(#395),#373);
#397=PROPERTY_DEFINITION('geometric validation property','centroid of #371',#386
);
#398=PROPERTY_DEFINITION_REPRESENTATION(#397,#396);
#399=SHAPE_REPRESENTATION('',(#371),#373);
#400=PROPERTY_DEFINITION('','Shape for Validation Properties',#386);
#401=SHAPE_DEFINITION_REPRESENTATION(#400,#399);
#402=MEASURE_REPRESENTATION_ITEM('volume measure',VOLUME_MEASURE(2358.460234116)
,#380);
#403=REPRESENTATION('volume',(#402),#373);
#404=PROPERTY_DEFINITION('geometric validation property',
'volume of shape rep #378 - MASTER',#385);
#405=PROPERTY_DEFINITION_REPRESENTATION(#404,#403);
#406=MEASURE_REPRESENTATION_ITEM('surface area measure',
AREA_MEASURE(4778.164245924),#383);
#407=REPRESENTATION('surface area',(#406),#373);
#408=PROPERTY_DEFINITION('geometric validation property',
'area of shape rep #378 - MASTER',#385);
#409=PROPERTY_DEFINITION_REPRESENTATION(#408,#407);
#410=CARTESIAN_POINT('centre point',(-19.756658525,0.0,0.0));
#411=REPRESENTATION('centroid',(#410),#373);
#412=PROPERTY_DEFINITION('geometric validation property',
'centroid of shape rep #378 - MASTER',#385);
#413=PROPERTY_DEFINITION_REPRESENTATION(#412,#411);
#385=PRODUCT_DEFINITION_SHAPE('',$,#15);
#414=SHAPE_DEFINITION_REPRESENTATION(#385,#378);
#415=PRESENTATION_LAYER_ASSIGNMENT('010','layer 010',(#371));
#416=COLOUR_RGB('',0.0,0.8,1.0);
#417=FILL_AREA_STYLE_COLOUR('',#416);
#418=FILL_AREA_STYLE('',(#417));
#419=SURFACE_STYLE_FILL_AREA(#418);
#420=SURFACE_SIDE_STYLE('',(#419));
#421=SURFACE_STYLE_USAGE(.BOTH.,#420);
#422=PRESENTATION_STYLE_ASSIGNMENT((#421));
#423=STYLED_ITEM('',(#422),#371);
#424=(GEOMETRIC_REPRESENTATION_CONTEXT(3)GLOBAL_UNIT_ASSIGNED_CONTEXT((#4,#5,#3)
)REPRESENTATION_CONTEXT('Presentation Context','3D'));
#425=CARTESIAN_POINT('#425',(0.0,0.0,0.0));
#426=DIRECTION('#426',(1.0,0.0,0.0));
#427=DIRECTION('#427',(0.0,0.0,1.0));
#428=AXIS2_PLACEMENT_3D('#428',#425,#427,#426);
#429=REPRESENTATION_MAP(#377,#378);
#430=MAPPED_ITEM('#430',#429,#428);
#431=DRAUGHTING_MODEL('#431',(#423,#428,#430),#424);
ENDSEC;
END-ISO-10303-21;
