ISO-10303-21;
HEADER;
FILE_DESCRIPTION(('CATIA V5 STEP'),'2;1');

FILE_NAME('E:\\Public\\Archive_PDES\\TR22\\NativeFiles\\s1\\HEAD_FRONT.stp','2008-08-18T12:41:45+00:00',('none'),('none'),'CATIA Version 5 Release 19 SP 1 (IN-PROTO)','CATIA V5 STEP AP214','none');

FILE_SCHEMA(('AUTOMOTIVE_DESIGN { 1 0 10303 214 1 1 1 1 }'));

ENDSEC;
/* file written by CATIA V5R19 */
DATA;
#5=PRODUCT('HEAD_FRONT','HEAD_FRONT',' ',(#2)) ;
#2=PRODUCT_CONTEXT(' ',#1,'mechanical') ;
#1=APPLICATION_CONTEXT('automotive design') ;
#10=PRODUCT_DEFINITION(' ',' ',#6,#3) ;
#3=PRODUCT_DEFINITION_CONTEXT('part definition',#1,' ') ;
#11=PRODUCT_DEFINITION_SHAPE(' ',' ',#10) ;
#17=DIMENSIONAL_EXPONENTS(1.,0.,0.,0.,0.,0.,0.) ;
#214=MECHANICAL_DESIGN_GEOMETRIC_PRESENTATION_REPRESENTATION(' ',(#33),#20) ;
#23=SHAPE_REPRESENTATION(' ',(#22),#20) ;
#22=AXIS2_PLACEMENT_3D(' ',#21,$,$) ;
#39=AXIS2_PLACEMENT_3D('Plane Axis2P3D',#36,#37,#38) ;
#165=AXIS2_PLACEMENT_3D('Sphere Axis2P3D',#162,#163,#164) ;
#169=AXIS2_PLACEMENT_3D('Circle Axis2P3D',#167,#168,$) ;
#180=AXIS2_PLACEMENT_3D('Sphere Axis2P3D',#177,#178,#179) ;
#190=AXIS2_PLACEMENT_3D('Sphere Axis2P3D',#187,#188,#189) ;
#194=AXIS2_PLACEMENT_3D('Circle Axis2P3D',#192,#193,$) ;
#205=AXIS2_PLACEMENT_3D('Sphere Axis2P3D',#202,#203,#204) ;
#21=CARTESIAN_POINT(' ',(0.,0.,0.)) ;
#36=CARTESIAN_POINT('Axis2P3D Location',(9.84251968504,0.,0.)) ;
#42=CARTESIAN_POINT('Control Point',(9.84251968504,-2.09805925913E-016,-2.36220472441)) ;
#43=CARTESIAN_POINT('Control Point',(9.84251968504,-0.224097066988,-2.36220472441)) ;
#44=CARTESIAN_POINT('Control Point',(9.84251968504,-0.44819411246,-2.33563024001)) ;
#45=CARTESIAN_POINT('Control Point',(9.84251968504,-0.668095186876,-2.28247572507)) ;
#46=CARTESIAN_POINT('Control Point',(9.84251968504,-1.09108179776,-2.1250427316)) ;
#47=CARTESIAN_POINT('Control Point',(9.84251968504,-1.46551646668,-1.87304780363)) ;
#48=CARTESIAN_POINT('Control Point',(9.84251968504,-1.63686057961,-1.7253214355)) ;
#49=CARTESIAN_POINT('Control Point',(9.84251968504,-1.94123879402,-1.39206969675)) ;
#50=CARTESIAN_POINT('Control Point',(9.84251968504,-2.15923407815,-0.996872503869)) ;
#51=CARTESIAN_POINT('Control Point',(9.84251968504,-2.24418626325,-0.787194154379)) ;
#52=CARTESIAN_POINT('Control Point',(9.84251968504,-2.36274548806,-0.351709907952)) ;
#53=CARTESIAN_POINT('Control Point',(9.84251968504,-2.37616524411,0.0994249667068)) ;
#54=CARTESIAN_POINT('Control Point',(9.84251968504,-2.35596697579,0.324755644921)) ;
#55=CARTESIAN_POINT('Control Point',(9.84251968504,-2.26252782195,0.766311919872)) ;
#56=CARTESIAN_POINT('Control Point',(9.84251968504,-2.06840879661,1.17376813813)) ;
#57=CARTESIAN_POINT('Control Point',(9.84251968504,-1.94752010862,1.36499525319)) ;
#58=CARTESIAN_POINT('Control Point',(9.84251968504,-1.66271513224,1.71512229376)) ;
#59=CARTESIAN_POINT('Control Point',(9.84251968504,-1.30392128642,1.98892832149)) ;
#60=CARTESIAN_POINT('Control Point',(9.84251968504,-1.10903594755,2.1038264866)) ;
#61=CARTESIAN_POINT('Control Point',(9.84251968504,-0.773644605289,2.25102627235)) ;
#62=CARTESIAN_POINT('Control Point',(9.84251968504,-0.417863424998,2.33125524611)) ;
#63=CARTESIAN_POINT('Control Point',(9.84251968504,-0.279252735727,2.35188834254)) ;
#64=CARTESIAN_POINT('Control Point',(9.84251968504,-0.13962637204,2.36220472441)) ;
#65=CARTESIAN_POINT('Control Point',(9.84251968504,-6.99353086378E-017,2.36220472441)) ;
#66=CARTESIAN_POINT('Vertex',(9.84251968504,-6.69153360511E-016,-2.36220472441)) ;
#68=CARTESIAN_POINT('Vertex',(9.84251968504,1.71818299008E-015,2.36220472441)) ;
#72=CARTESIAN_POINT('Control Point',(9.84251968504,-6.99353086378E-017,2.36220472441)) ;
#73=CARTESIAN_POINT('Control Point',(9.84251968504,0.224097066996,2.36220472441)) ;
#74=CARTESIAN_POINT('Control Point',(9.84251968504,0.448194112474,2.33563024)) ;
#75=CARTESIAN_POINT('Control Point',(9.84251968504,0.668095186862,2.28247572507)) ;
#76=CARTESIAN_POINT('Control Point',(9.84251968504,1.09108179775,2.1250427316)) ;
#77=CARTESIAN_POINT('Control Point',(9.84251968504,1.46551646667,1.87304780363)) ;
#78=CARTESIAN_POINT('Control Point',(9.84251968504,1.63686057962,1.72532143549)) ;
#79=CARTESIAN_POINT('Control Point',(9.84251968504,1.94123879401,1.39206969675)) ;
#80=CARTESIAN_POINT('Control Point',(9.84251968504,2.15923407815,0.996872503874)) ;
#81=CARTESIAN_POINT('Control Point',(9.84251968504,2.24418626325,0.787194154369)) ;
#82=CARTESIAN_POINT('Control Point',(9.84251968504,2.36274548806,0.351709907948)) ;
#83=CARTESIAN_POINT('Control Point',(9.84251968504,2.37616524411,-0.099424966704)) ;
#84=CARTESIAN_POINT('Control Point',(9.84251968504,2.35596697579,-0.324755644924)) ;
#85=CARTESIAN_POINT('Control Point',(9.84251968504,2.26252782195,-0.766311919874)) ;
#86=CARTESIAN_POINT('Control Point',(9.84251968504,2.06840879661,-1.17376813813)) ;
#87=CARTESIAN_POINT('Control Point',(9.84251968504,1.94752010862,-1.36499525319)) ;
#88=CARTESIAN_POINT('Control Point',(9.84251968504,1.66271513225,-1.71512229375)) ;
#89=CARTESIAN_POINT('Control Point',(9.84251968504,1.30392128644,-1.98892832147)) ;
#90=CARTESIAN_POINT('Control Point',(9.84251968504,1.10903594753,-2.10382648662)) ;
#91=CARTESIAN_POINT('Control Point',(9.84251968504,0.773644605284,-2.25102627234)) ;
#92=CARTESIAN_POINT('Control Point',(9.84251968504,0.417863425012,-2.33125524611)) ;
#93=CARTESIAN_POINT('Control Point',(9.84251968504,0.279252735712,-2.35188834254)) ;
#94=CARTESIAN_POINT('Control Point',(9.84251968504,0.139626372033,-2.36220472441)) ;
#95=CARTESIAN_POINT('Control Point',(9.84251968504,5.59482469102E-016,-2.36220472441)) ;
#102=CARTESIAN_POINT('Control Point',(9.84251968504,6.99353086378E-017,2.32283464567)) ;
#103=CARTESIAN_POINT('Control Point',(9.84251968504,-0.222221701647,2.32283464567)) ;
#104=CARTESIAN_POINT('Control Point',(9.84251968504,-0.444443381516,2.29626017158)) ;
#105=CARTESIAN_POINT('Control Point',(9.84251968504,-0.662433752071,2.24310549306)) ;
#106=CARTESIAN_POINT('Control Point',(9.84251968504,-1.08145702795,2.08570705057)) ;
#107=CARTESIAN_POINT('Control Point',(9.84251968504,-1.45155024289,1.83394181893)) ;
#108=CARTESIAN_POINT('Control Point',(9.84251968504,-1.62060532475,1.6864101248)) ;
#109=CARTESIAN_POINT('Control Point',(9.84251968504,-1.92014453389,1.35379768391)) ;
#110=CARTESIAN_POINT('Control Point',(9.84251968504,-2.13280768991,0.959933365115)) ;
#111=CARTESIAN_POINT('Control Point',(9.84251968504,-2.21497736854,0.751143123731)) ;
#112=CARTESIAN_POINT('Control Point',(9.84251968504,-2.32779083354,0.317982766056)) ;
#113=CARTESIAN_POINT('Control Point',(9.84251968504,-2.33528451022,-0.129564509671)) ;
#114=CARTESIAN_POINT('Control Point',(9.84251968504,-2.31212303024,-0.352743288336)) ;
#115=CARTESIAN_POINT('Control Point',(9.84251968504,-2.21288596494,-0.789214111169)) ;
#116=CARTESIAN_POINT('Control Point',(9.84251968504,-2.01352795365,-1.18997726266)) ;
#117=CARTESIAN_POINT('Control Point',(9.84251968504,-1.89023468911,-1.37744457202)) ;
#118=CARTESIAN_POINT('Control Point',(9.84251968504,-1.60122419841,-1.71924526004)) ;
#119=CARTESIAN_POINT('Control Point',(9.84251968504,-1.23976713173,-1.98325947955)) ;
#120=CARTESIAN_POINT('Control Point',(9.84251968504,-1.04401941803,-2.09293195965)) ;
#121=CARTESIAN_POINT('Control Point',(9.84251968504,-0.719592227264,-2.22649617064)) ;
#122=CARTESIAN_POINT('Control Point',(9.84251968504,-0.3776498197,-2.29714653903)) ;
#123=CARTESIAN_POINT('Control Point',(9.84251968504,-0.252282933585,-2.31427200896)) ;
#124=CARTESIAN_POINT('Control Point',(9.84251968504,-0.1261414703,-2.32283464567)) ;
#125=CARTESIAN_POINT('Control Point',(9.84251968504,-3.49676543189E-017,-2.32283464567)) ;
#126=CARTESIAN_POINT('Vertex',(9.84251968504,-1.42227903298E-016,2.32283464567)) ;
#128=CARTESIAN_POINT('Vertex',(9.84251968504,1.42227903298E-016,-2.32283464567)) ;
#132=CARTESIAN_POINT('Control Point',(9.84251968504,6.99353086378E-017,-2.32283464567)) ;
#133=CARTESIAN_POINT('Control Point',(9.84251968504,0.222221701648,-2.32283464567)) ;
#134=CARTESIAN_POINT('Control Point',(9.84251968504,0.444443381518,-2.29626017158)) ;
#135=CARTESIAN_POINT('Control Point',(9.84251968504,0.662433752074,-2.24310549306)) ;
#136=CARTESIAN_POINT('Control Point',(9.84251968504,1.08145702794,-2.08570705057)) ;
#137=CARTESIAN_POINT('Control Point',(9.84251968504,1.45155024288,-1.83394181894)) ;
#138=CARTESIAN_POINT('Control Point',(9.84251968504,1.62060532476,-1.68641012479)) ;
#139=CARTESIAN_POINT('Control Point',(9.84251968504,1.92014453389,-1.3537976839)) ;
#140=CARTESIAN_POINT('Control Point',(9.84251968504,2.13280768991,-0.95993336512)) ;
#141=CARTESIAN_POINT('Control Point',(9.84251968504,2.21497736854,-0.75114312373)) ;
#142=CARTESIAN_POINT('Control Point',(9.84251968504,2.32779083354,-0.317982766058)) ;
#143=CARTESIAN_POINT('Control Point',(9.84251968504,2.33528451022,0.129564509666)) ;
#144=CARTESIAN_POINT('Control Point',(9.84251968504,2.31212303024,0.352743288348)) ;
#145=CARTESIAN_POINT('Control Point',(9.84251968504,2.21288596493,0.789214111157)) ;
#146=CARTESIAN_POINT('Control Point',(9.84251968504,2.01352795366,1.18997726266)) ;
#147=CARTESIAN_POINT('Control Point',(9.84251968504,1.8902346891,1.37744457203)) ;
#148=CARTESIAN_POINT('Control Point',(9.84251968504,1.6012241984,1.71924526004)) ;
#149=CARTESIAN_POINT('Control Point',(9.84251968504,1.23976713173,1.98325947954)) ;
#150=CARTESIAN_POINT('Control Point',(9.84251968504,1.04401941803,2.09293195965)) ;
#151=CARTESIAN_POINT('Control Point',(9.84251968504,0.719592227257,2.22649617064)) ;
#152=CARTESIAN_POINT('Control Point',(9.84251968504,0.377649819695,2.29714653903)) ;
#153=CARTESIAN_POINT('Control Point',(9.84251968504,0.252282933592,2.31427200896)) ;
#154=CARTESIAN_POINT('Control Point',(9.84251968504,0.126141470303,2.32283464567)) ;
#155=CARTESIAN_POINT('Control Point',(9.84251968504,9.09159012291E-016,2.32283464567)) ;
#162=CARTESIAN_POINT('Axis2P3D Location',(9.84251968504,0.,0.)) ;
#167=CARTESIAN_POINT('Axis2P3D Location',(9.84251968504,0.,0.)) ;
#177=CARTESIAN_POINT('Axis2P3D Location',(9.84251968504,0.,0.)) ;
#187=CARTESIAN_POINT('Axis2P3D Location',(9.84251968504,0.,0.)) ;
#192=CARTESIAN_POINT('Axis2P3D Location',(9.84251968504,0.,0.)) ;
#202=CARTESIAN_POINT('Axis2P3D Location',(9.84251968504,0.,0.)) ;
#37=DIRECTION('Axis2P3D Direction',(0.0393700787402,0.,-0.)) ;
#38=DIRECTION('Axis2P3D XDirection',(0.,0.,0.0393700787402)) ;
#163=DIRECTION('Axis2P3D Direction',(0.,0.,0.0393700787402)) ;
#164=DIRECTION('Axis2P3D XDirection',(0.,-0.0393700787402,0.)) ;
#168=DIRECTION('Axis2P3D Direction',(-4.46105425012E-017,-0.0393700787402,0.)) ;
#178=DIRECTION('Axis2P3D Direction',(0.,0.,0.0393700787402)) ;
#179=DIRECTION('Axis2P3D XDirection',(0.0393700787402,0.,0.)) ;
#188=DIRECTION('Axis2P3D Direction',(0.,0.,0.0393700787402)) ;
#189=DIRECTION('Axis2P3D XDirection',(0.,-0.0393700787402,0.)) ;
#193=DIRECTION('Axis2P3D Direction',(-9.64288818226E-018,-0.0393700787402,0.)) ;
#203=DIRECTION('Axis2P3D Direction',(0.,0.,0.0393700787402)) ;
#204=DIRECTION('Axis2P3D XDirection',(0.0393700787402,0.,0.)) ;
#34=PRESENTATION_LAYER_ASSIGNMENT('0',' ',(#25)) ;
#8=PRODUCT_RELATED_PRODUCT_CATEGORY('part',$,(#5)) ;
#7=PRODUCT_CATEGORY('part','specification') ;
#33=STYLED_ITEM(' ',(#32),#25) ;
#32=PRESENTATION_STYLE_ASSIGNMENT((#31)) ;
#31=SURFACE_STYLE_USAGE(.BOTH.,#30) ;
#30=SURFACE_SIDE_STYLE(' ',(#29)) ;
#29=SURFACE_STYLE_FILL_AREA(#28) ;
#28=FILL_AREA_STYLE(' ',(#27)) ;
#27=FILL_AREA_STYLE_COLOUR(' ',#26) ;
#19=UNCERTAINTY_MEASURE_WITH_UNIT(LENGTH_MEASURE(0.000196850393701),#18,'distance_accuracy_value','CONFUSED CURVE UNCERTAINTY') ;
#213=SHAPE_REPRESENTATION_RELATIONSHIP(' ',' ',#23,#212) ;
#98=ORIENTED_EDGE('',*,*,#70,.T.) ;
#99=ORIENTED_EDGE('',*,*,#96,.T.) ;
#158=ORIENTED_EDGE('',*,*,#130,.T.) ;
#159=ORIENTED_EDGE('',*,*,#156,.T.) ;
#173=ORIENTED_EDGE('',*,*,#171,.F.) ;
#174=ORIENTED_EDGE('',*,*,#70,.F.) ;
#183=ORIENTED_EDGE('',*,*,#171,.T.) ;
#184=ORIENTED_EDGE('',*,*,#96,.F.) ;
#198=ORIENTED_EDGE('',*,*,#196,.T.) ;
#199=ORIENTED_EDGE('',*,*,#130,.F.) ;
#208=ORIENTED_EDGE('',*,*,#196,.F.) ;
#209=ORIENTED_EDGE('',*,*,#156,.F.) ;
#160=FACE_BOUND('',#157,.T.) ;
#35=CLOSED_SHELL('Closed Shell',(#161,#176,#186,#201,#211)) ;
#212=ADVANCED_BREP_SHAPE_REPRESENTATION('NONE',(#25),#20) ;
#161=ADVANCED_FACE('*VOL6',(#100,#160),#40,.F.) ;
#176=ADVANCED_FACE('*VOL6',(#175),#166,.T.) ;
#186=ADVANCED_FACE('*VOL6',(#185),#181,.T.) ;
#201=ADVANCED_FACE('*VOL6',(#200),#191,.F.) ;
#211=ADVANCED_FACE('*VOL6',(#210),#206,.F.) ;
#4=APPLICATION_PROTOCOL_DEFINITION('international standard','automotive_design',2001,#1) ;
#41=B_SPLINE_CURVE_WITH_KNOTS('',5,(#42,#43,#44,#45,#46,#47,#48,#49,#50,#51,#52,#53,#54,#55,#56,#57,#58,#59,#60,#61,#62,#63,#64,#65),.UNSPECIFIED.,.F.,.U.,(6,3,3,3,3,3,3,6),(0.,42.0351049577,84.0702098781,126.105314689,168.140419612,210.175524564,252.210629404,278.401106962),.UNSPECIFIED.) ;
#71=B_SPLINE_CURVE_WITH_KNOTS('',5,(#72,#73,#74,#75,#76,#77,#78,#79,#80,#81,#82,#83,#84,#85,#86,#87,#88,#89,#90,#91,#92,#93,#94,#95),.UNSPECIFIED.,.F.,.U.,(6,3,3,3,3,3,3,6),(0.,42.035104959,84.0702098792,126.105314689,168.140419612,210.175524564,252.210629402,278.401106958),.UNSPECIFIED.) ;
#101=B_SPLINE_CURVE_WITH_KNOTS('',5,(#102,#103,#104,#105,#106,#107,#108,#109,#110,#111,#112,#113,#114,#115,#116,#117,#118,#119,#120,#121,#122,#123,#124,#125),.UNSPECIFIED.,.F.,.U.,(6,3,3,3,3,3,3,6),(0.,41.6833324868,83.3666649358,125.049997231,166.733329647,208.416662129,250.099994489,273.761035728),.UNSPECIFIED.) ;
#131=B_SPLINE_CURVE_WITH_KNOTS('',5,(#132,#133,#134,#135,#136,#137,#138,#139,#140,#141,#142,#143,#144,#145,#146,#147,#148,#149,#150,#151,#152,#153,#154,#155),.UNSPECIFIED.,.F.,.U.,(6,3,3,3,3,3,3,6),(0.,41.683332487,83.3666649344,125.049997229,166.733329645,208.416662126,250.099994486,273.761035726),.UNSPECIFIED.) ;
#25=MANIFOLD_SOLID_BREP('*VOL6',#35) ;
#170=CIRCLE('generated circle',#169,2.36220472441) ;
#195=CIRCLE('generated circle',#194,2.32283464567) ;
#26=DRAUGHTING_PRE_DEFINED_COLOUR('red') ;
#70=EDGE_CURVE('',#67,#69,#41,.T.) ;
#96=EDGE_CURVE('',#69,#67,#71,.T.) ;
#130=EDGE_CURVE('',#127,#129,#101,.T.) ;
#156=EDGE_CURVE('',#129,#127,#131,.T.) ;
#171=EDGE_CURVE('',#69,#67,#170,.F.) ;
#196=EDGE_CURVE('',#127,#129,#195,.F.) ;
#97=EDGE_LOOP('',(#98,#99)) ;
#157=EDGE_LOOP('',(#158,#159)) ;
#172=EDGE_LOOP('',(#173,#174)) ;
#182=EDGE_LOOP('',(#183,#184)) ;
#197=EDGE_LOOP('',(#198,#199)) ;
#207=EDGE_LOOP('',(#208,#209)) ;
#100=FACE_OUTER_BOUND('',#97,.T.) ;
#175=FACE_OUTER_BOUND('',#172,.T.) ;
#185=FACE_OUTER_BOUND('',#182,.T.) ;
#200=FACE_OUTER_BOUND('',#197,.T.) ;
#210=FACE_OUTER_BOUND('',#207,.T.) ;
#16=LENGTH_MEASURE_WITH_UNIT(LENGTH_MEASURE(25.4),#12) ;
#40=PLANE('Plane',#39) ;
#14=PLANE_ANGLE_MEASURE_WITH_UNIT(PLANE_ANGLE_MEASURE(0.0174532925199),#13) ;
#9=PRODUCT_CATEGORY_RELATIONSHIP(' ',' ',#7,#8) ;
#6=PRODUCT_DEFINITION_FORMATION_WITH_SPECIFIED_SOURCE(' ',' ',#5,.NOT_KNOWN.) ;
#24=SHAPE_DEFINITION_REPRESENTATION(#11,#23) ;
#166=SPHERICAL_SURFACE('',#165,2.36220472441) ;
#181=SPHERICAL_SURFACE('',#180,2.36220472441) ;
#191=SPHERICAL_SURFACE('',#190,2.32283464567) ;
#206=SPHERICAL_SURFACE('',#205,2.32283464567) ;
#67=VERTEX_POINT('',#66) ;
#69=VERTEX_POINT('',#68) ;
#127=VERTEX_POINT('',#126) ;
#129=VERTEX_POINT('',#128) ;
#12=(LENGTH_UNIT()NAMED_UNIT(*)SI_UNIT(.MILLI.,.METRE.)) ;
#13=(NAMED_UNIT(*)PLANE_ANGLE_UNIT()SI_UNIT($,.RADIAN.)) ;
#15=(NAMED_UNIT(*)SI_UNIT($,.STERADIAN.)SOLID_ANGLE_UNIT()) ;
#18=(CONVERSION_BASED_UNIT('INCH',#16)LENGTH_UNIT()NAMED_UNIT(#17)) ;
#20=(GEOMETRIC_REPRESENTATION_CONTEXT(3)GLOBAL_UNCERTAINTY_ASSIGNED_CONTEXT((#19))GLOBAL_UNIT_ASSIGNED_CONTEXT((#18,#13,#15))REPRESENTATION_CONTEXT(' ',' ')) ;
ENDSEC;
END-ISO-10303-21;
